ISO-10303-21;
HEADER;
FILE_DESCRIPTION (( 'STEP AP203' ),
    '1' );
FILE_NAME ('K-143-5SNM.STEP',
    '2009-08-10T05:08:01',
    ( '11sw' ),
    ( '^LQ»¢®ïÐ' ),
    'SwSTEP 2.0',
    'SolidWorks 2007',
    '' );
FILE_SCHEMA (( 'CONFIG_CONTROL_DESIGN' ));
ENDSEC;

DATA;
#1 = APPLICATION_CONTEXT ( 'configuration controlled 3d designs of mechanical parts and assemblies' ) ;
#2 = ADVANCED_FACE ( 'NONE', ( #291 ), #288, .T. ) ;
#3 = MANIFOLD_SOLID_BREP ( 'NONE', #37 ) ;
#4 = ADVANCED_FACE ( 'NONE', ( #284 ), #283, .T. ) ;
#5 = EDGE_LOOP ( 'NONE', ( #6, #86, #89, #92 ) ) ;
#6 = ORIENTED_EDGE ( 'NONE', *, *, #83, .F. ) ;
#7 = VERTEX_POINT ( 'NONE', #279 ) ;
#8 = ORIENTED_EDGE ( 'NONE', *, *, #9, .T. ) ;
#9 = EDGE_CURVE ( 'NONE', #20, #10, #278, .T. ) ;
#10 = VERTEX_POINT ( 'NONE', #274 ) ;
#11 = ORIENTED_EDGE ( 'NONE', *, *, #12, .F. ) ;
#12 = EDGE_CURVE ( 'NONE', #13, #10, #126, .T. ) ;
#13 = VERTEX_POINT ( 'NONE', #121 ) ;
#14 = ORIENTED_EDGE ( 'NONE', *, *, #15, .F. ) ;
#15 = EDGE_CURVE ( 'NONE', #7, #13, #120, .T. ) ;
#16 = ADVANCED_FACE ( 'NONE', ( #116 ), #114, .T. ) ;
#17 = EDGE_LOOP ( 'NONE', ( #61, #230, #233, #300 ) ) ;
#18 = ORIENTED_EDGE ( 'NONE', *, *, #19, .T. ) ;
#19 = EDGE_CURVE ( 'NONE', #7, #20, #109, .T. ) ;
#20 = VERTEX_POINT ( 'NONE', #105 ) ;
#21 = APPROVAL_ROLE ( '' ) ;
#22 = APPROVAL ( #23, 'UNSPECIFIED' ) ;
#23 = APPROVAL_STATUS ( 'not_yet_approved' ) ;
#24 = PERSON_AND_ORGANIZATION ( #238, #237 ) ;
#25 = PRODUCT_DEFINITION ( 'UNKNOWN', '', #351, #26 ) ;
#26 = DESIGN_CONTEXT ( 'detailed design', #1, 'design' ) ;
#27 = APPLICATION_PROTOCOL_DEFINITION ( 'international standard', 'config_control_design', 1994, #1 ) ;
#28 = EDGE_LOOP ( 'NONE', ( #18, #8, #11, #14 ) ) ;
#29 = ORIENTED_EDGE ( 'NONE', *, *, #30, .F. ) ;
#30 = EDGE_CURVE ( 'NONE', #50, #48, #103, .T. ) ;
#31 = ORIENTED_EDGE ( 'NONE', *, *, #93, .T. ) ;
#32 = ORIENTED_EDGE ( 'NONE', *, *, #57, .T. ) ;
#33 = ADVANCED_FACE ( 'NONE', ( #104 ), #98, .T. ) ;
#34 = EDGE_LOOP ( 'NONE', ( #35, #36 ) ) ;
#35 = ORIENTED_EDGE ( 'NONE', *, *, #73, .T. ) ;
#36 = ORIENTED_EDGE ( 'NONE', *, *, #83, .T. ) ;
#37 = CLOSED_SHELL ( 'NONE', ( #4, #2, #16, #74, #76, #60, #294, #45, #63, #69, #33 ) ) ;
#38 = EDGE_LOOP ( 'NONE', ( #39, #41 ) ) ;
#39 = ORIENTED_EDGE ( 'NONE', *, *, #40, .T. ) ;
#40 = EDGE_CURVE ( 'NONE', #232, #231, #190, .T. ) ;
#41 = ORIENTED_EDGE ( 'NONE', *, *, #296, .T. ) ;
#42 = EDGE_LOOP ( 'NONE', ( #43, #44 ) ) ;
#43 = ORIENTED_EDGE ( 'NONE', *, *, #49, .F. ) ;
#44 = ORIENTED_EDGE ( 'NONE', *, *, #299, .F. ) ;
#45 = ADVANCED_FACE ( 'NONE', ( #185 ), #184, .T. ) ;
#46 = ORIENTED_EDGE ( 'NONE', *, *, #47, .T. ) ;
#47 = EDGE_CURVE ( 'NONE', #51, #48, #178, .T. ) ;
#48 = VERTEX_POINT ( 'NONE', #174 ) ;
#49 = EDGE_CURVE ( 'NONE', #50, #51, #173, .T. ) ;
#50 = VERTEX_POINT ( 'NONE', #168 ) ;
#51 = VERTEX_POINT ( 'NONE', #167 ) ;
#52 = ORIENTED_EDGE ( 'NONE', *, *, #19, .F. ) ;
#53 = ORIENTED_EDGE ( 'NONE', *, *, #54, .F. ) ;
#54 = EDGE_CURVE ( 'NONE', #20, #7, #166, .T. ) ;
#55 = EDGE_LOOP ( 'NONE', ( #56, #59 ) ) ;
#56 = ORIENTED_EDGE ( 'NONE', *, *, #57, .F. ) ;
#57 = EDGE_CURVE ( 'NONE', #91, #88, #220, .T. ) ;
#58 = EDGE_LOOP ( 'NONE', ( #297, #298, #293 ) ) ;
#59 = ORIENTED_EDGE ( 'NONE', *, *, #90, .F. ) ;
#60 = ADVANCED_FACE ( 'NONE', ( #215 ), #214, .T. ) ;
#61 = ORIENTED_EDGE ( 'NONE', *, *, #296, .F. ) ;
#62 = EDGE_CURVE ( 'NONE', #10, #13, #209, .T. ) ;
#63 = ADVANCED_FACE ( 'NONE', ( #204 ), #203, .T. ) ;
#64 = EDGE_LOOP ( 'NONE', ( #65, #66, #67, #68 ) ) ;
#65 = ORIENTED_EDGE ( 'NONE', *, *, #9, .F. ) ;
#66 = ORIENTED_EDGE ( 'NONE', *, *, #54, .T. ) ;
#67 = ORIENTED_EDGE ( 'NONE', *, *, #15, .T. ) ;
#68 = ORIENTED_EDGE ( 'NONE', *, *, #62, .F. ) ;
#69 = ADVANCED_FACE ( 'NONE', ( #202 ), #197, .T. ) ;
#70 = EDGE_LOOP ( 'NONE', ( #71, #72, #31, #32 ) ) ;
#71 = ORIENTED_EDGE ( 'NONE', *, *, #87, .F. ) ;
#72 = ORIENTED_EDGE ( 'NONE', *, *, #73, .F. ) ;
#73 = EDGE_CURVE ( 'NONE', #85, #84, #191, .T. ) ;
#74 = ADVANCED_FACE ( 'NONE', ( #157 ), #156, .T. ) ;
#75 = ORIENTED_EDGE ( 'NONE', *, *, #49, .T. ) ;
#76 = ADVANCED_FACE ( 'NONE', ( #150, #149 ), #155, .T. ) ;
#77 = EDGE_LOOP ( 'NONE', ( #52, #53 ) ) ;
#78 = EDGE_LOOP ( 'NONE', ( #79, #80, #81, #82 ) ) ;
#79 = ORIENTED_EDGE ( 'NONE', *, *, #295, .F. ) ;
#80 = ORIENTED_EDGE ( 'NONE', *, *, #40, .F. ) ;
#81 = ORIENTED_EDGE ( 'NONE', *, *, #301, .T. ) ;
#82 = ORIENTED_EDGE ( 'NONE', *, *, #62, .T. ) ;
#83 = EDGE_CURVE ( 'NONE', #84, #85, #144, .T. ) ;
#84 = VERTEX_POINT ( 'NONE', #139 ) ;
#85 = VERTEX_POINT ( 'NONE', #138 ) ;
#86 = ORIENTED_EDGE ( 'NONE', *, *, #87, .T. ) ;
#87 = EDGE_CURVE ( 'NONE', #84, #88, #137, .T. ) ;
#88 = VERTEX_POINT ( 'NONE', #133 ) ;
#89 = ORIENTED_EDGE ( 'NONE', *, *, #90, .T. ) ;
#90 = EDGE_CURVE ( 'NONE', #88, #91, #132, .T. ) ;
#91 = VERTEX_POINT ( 'NONE', #127 ) ;
#92 = ORIENTED_EDGE ( 'NONE', *, *, #93, .F. ) ;
#93 = EDGE_CURVE ( 'NONE', #85, #91, #273, .T. ) ;
#94 = DIRECTION ( 'NONE',  ( 0.0000000000000000000, 0.0000000000000000000, -1.000000000000000000 ) ) ;
#95 = DIRECTION ( 'NONE',  ( 0.0000000000000000000, -1.000000000000000000, 0.0000000000000000000 ) ) ;
#96 = CARTESIAN_POINT ( 'NONE',  ( 0.0000000000000000000, -7.500000000000000000, 0.0000000000000000000 ) ) ;
#97 = AXIS2_PLACEMENT_3D ( 'NONE', #96, #95, #94 ) ;
#98 = PLANE ( 'NONE',  #97 ) ;
#99 = DIRECTION ( 'NONE',  ( -1.000000000000000000, 0.0000000000000000000, 0.0000000000000000000 ) ) ;
#100 = DIRECTION ( 'NONE',  ( 0.0000000000000000000, 0.0000000000000000000, -1.000000000000000000 ) ) ;
#101 = CARTESIAN_POINT ( 'NONE',  ( 3.450844842832075500E-015, -1.399999999999999900, 0.0000000000000000000 ) ) ;
#102 = AXIS2_PLACEMENT_3D ( 'NONE', #101, #100, #99 ) ;
#103 = CIRCLE ( 'NONE', #102, 2.400000000000000400 ) ;
#104 = FACE_OUTER_BOUND ( 'NONE', #34, .T. ) ;
#105 = CARTESIAN_POINT ( 'NONE',  ( 4.898425415289504100E-016, -4.999999999999999100, -3.999999999999995600 ) ) ;
#106 = DIRECTION ( 'NONE',  ( 0.0000000000000000000, 0.0000000000000000000, 1.000000000000000000 ) ) ;
#107 = DIRECTION ( 'NONE',  ( 0.0000000000000000000, 1.000000000000000000, 0.0000000000000000000 ) ) ;
#108 = AXIS2_PLACEMENT_3D ( 'NONE', #115, #107, #106 ) ;
#109 = CIRCLE ( 'NONE', #108, 3.999999999999995600 ) ;
#110 = DIRECTION ( 'NONE',  ( 0.0000000000000000000, 0.0000000000000000000, -1.000000000000000000 ) ) ;
#111 = DIRECTION ( 'NONE',  ( 0.0000000000000000000, -1.000000000000000000, 0.0000000000000000000 ) ) ;
#112 = CARTESIAN_POINT ( 'NONE',  ( 0.0000000000000000000, 0.0000000000000000000, 0.0000000000000000000 ) ) ;
#113 = AXIS2_PLACEMENT_3D ( 'NONE', #112, #111, #110 ) ;
#114 = CONICAL_SURFACE ( 'NONE', #113, 2.399999999999996800, 0.7853981633974482800 ) ;
#115 = CARTESIAN_POINT ( 'NONE',  ( 0.0000000000000000000, -4.999999999999999100, 0.0000000000000000000 ) ) ;
#116 = FACE_OUTER_BOUND ( 'NONE', #17, .T. ) ;
#117 = DIRECTION ( 'NONE',  ( 0.0000000000000000000, 1.000000000000000000, 0.0000000000000000000 ) ) ;
#118 = VECTOR ( 'NONE', #117, 1000.000000000000000 ) ;
#119 = CARTESIAN_POINT ( 'NONE',  ( 0.0000000000000000000, 2.709428535916498200, 3.999999999999996400 ) ) ;
#120 = LINE ( 'NONE', #119, #118 ) ;
#121 = CARTESIAN_POINT ( 'NONE',  ( 4.898425415289505100E-016, -1.600000000000000100, 3.999999999999996400 ) ) ;
#122 = DIRECTION ( 'NONE',  ( 0.0000000000000000000, 0.0000000000000000000, 1.000000000000000000 ) ) ;
#123 = DIRECTION ( 'NONE',  ( 0.0000000000000000000, 1.000000000000000000, 0.0000000000000000000 ) ) ;
#124 = CARTESIAN_POINT ( 'NONE',  ( 0.0000000000000000000, -1.600000000000000300, 0.0000000000000000000 ) ) ;
#125 = AXIS2_PLACEMENT_3D ( 'NONE', #124, #123, #122 ) ;
#126 = CIRCLE ( 'NONE', #125, 3.999999999999996400 ) ;
#127 = CARTESIAN_POINT ( 'NONE',  ( 0.0000000000000000000, -5.000000000000000000, 1.000000000000000000 ) ) ;
#128 = DIRECTION ( 'NONE',  ( 0.0000000000000000000, 0.0000000000000000000, -1.000000000000000000 ) ) ;
#129 = DIRECTION ( 'NONE',  ( 0.0000000000000000000, -1.000000000000000000, 0.0000000000000000000 ) ) ;
#130 = CARTESIAN_POINT ( 'NONE',  ( 0.0000000000000000000, -5.000000000000000000, 0.0000000000000000000 ) ) ;
#131 = AXIS2_PLACEMENT_3D ( 'NONE', #130, #129, #128 ) ;
#132 = CIRCLE ( 'NONE', #131, 1.000000000000000000 ) ;
#133 = CARTESIAN_POINT ( 'NONE',  ( 1.224606353822377300E-016, -5.000000000000000000, -1.000000000000000000 ) ) ;
#134 = DIRECTION ( 'NONE',  ( 0.0000000000000000000, 1.000000000000000000, 0.0000000000000000000 ) ) ;
#135 = VECTOR ( 'NONE', #134, 1000.000000000000000 ) ;
#136 = CARTESIAN_POINT ( 'NONE',  ( 1.224606353822377300E-016, -7.500000000000000000, -1.000000000000000000 ) ) ;
#137 = LINE ( 'NONE', #136, #135 ) ;
#138 = CARTESIAN_POINT ( 'NONE',  ( 0.0000000000000000000, -7.500000000000000000, 1.000000000000000000 ) ) ;
#139 = CARTESIAN_POINT ( 'NONE',  ( 1.224606353822377300E-016, -7.500000000000000000, -1.000000000000000000 ) ) ;
#140 = DIRECTION ( 'NONE',  ( 0.0000000000000000000, 0.0000000000000000000, -1.000000000000000000 ) ) ;
#141 = DIRECTION ( 'NONE',  ( 0.0000000000000000000, -1.000000000000000000, 0.0000000000000000000 ) ) ;
#142 = CARTESIAN_POINT ( 'NONE',  ( 0.0000000000000000000, -7.500000000000000000, 0.0000000000000000000 ) ) ;
#143 = AXIS2_PLACEMENT_3D ( 'NONE', #142, #141, #140 ) ;
#144 = CIRCLE ( 'NONE', #143, 1.000000000000000000 ) ;
#145 = DIRECTION ( 'NONE',  ( 0.0000000000000000000, 0.0000000000000000000, -1.000000000000000000 ) ) ;
#146 = DIRECTION ( 'NONE',  ( 0.0000000000000000000, -1.000000000000000000, 0.0000000000000000000 ) ) ;
#147 = CARTESIAN_POINT ( 'NONE',  ( -3.999999999999995600, -5.000000000000000000, 0.0000000000000000000 ) ) ;
#148 = AXIS2_PLACEMENT_3D ( 'NONE', #147, #146, #145 ) ;
#149 = FACE_BOUND ( 'NONE', #55, .T. ) ;
#150 = FACE_OUTER_BOUND ( 'NONE', #77, .T. ) ;
#151 = DIRECTION ( 'NONE',  ( -1.000000000000000000, 0.0000000000000000000, 0.0000000000000000000 ) ) ;
#152 = DIRECTION ( 'NONE',  ( 0.0000000000000000000, 0.0000000000000000000, 1.000000000000000000 ) ) ;
#153 = CARTESIAN_POINT ( 'NONE',  ( 3.450844842832075500E-015, -1.399999999999999900, 0.0000000000000000000 ) ) ;
#154 = AXIS2_PLACEMENT_3D ( 'NONE', #153, #152, #151 ) ;
#155 = PLANE ( 'NONE',  #148 ) ;
#156 = SPHERICAL_SURFACE ( 'NONE', #154, 2.400000000000000400 ) ;
#157 = FACE_OUTER_BOUND ( 'NONE', #161, .T. ) ;
#158 = DIRECTION ( 'NONE',  ( 0.0000000000000000000, 0.0000000000000000000, -1.000000000000000000 ) ) ;
#159 = DIRECTION ( 'NONE',  ( 0.0000000000000000000, -1.000000000000000000, 0.0000000000000000000 ) ) ;
#160 = AXIS2_PLACEMENT_3D ( 'NONE', #196, #159, #158 ) ;
#161 = EDGE_LOOP ( 'NONE', ( #75, #46, #29 ) ) ;
#162 = DIRECTION ( 'NONE',  ( 0.0000000000000000000, 0.0000000000000000000, 1.000000000000000000 ) ) ;
#163 = DIRECTION ( 'NONE',  ( 0.0000000000000000000, 1.000000000000000000, 0.0000000000000000000 ) ) ;
#164 = CARTESIAN_POINT ( 'NONE',  ( 0.0000000000000000000, -4.999999999999999100, 0.0000000000000000000 ) ) ;
#165 = AXIS2_PLACEMENT_3D ( 'NONE', #164, #163, #162 ) ;
#166 = CIRCLE ( 'NONE', #165, 3.999999999999995600 ) ;
#167 = CARTESIAN_POINT ( 'NONE',  ( 1.949358868961793100, 1.084202172485504400E-016, 2.387197256810611000E-016 ) ) ;
#168 = CARTESIAN_POINT ( 'NONE',  ( -1.949358868961789800, 1.084202172485504400E-016, 0.0000000000000000000 ) ) ;
#169 = DIRECTION ( 'NONE',  ( 0.0000000000000000000, 0.0000000000000000000, 1.000000000000000000 ) ) ;
#170 = DIRECTION ( 'NONE',  ( 0.0000000000000000000, 1.000000000000000000, 0.0000000000000000000 ) ) ;
#171 = CARTESIAN_POINT ( 'NONE',  ( 0.0000000000000000000, 0.0000000000000000000, 0.0000000000000000000 ) ) ;
#172 = AXIS2_PLACEMENT_3D ( 'NONE', #171, #170, #169 ) ;
#173 = CIRCLE ( 'NONE', #172, 1.949358868961789800 ) ;
#174 = CARTESIAN_POINT ( 'NONE',  ( 3.303892080373390100E-015, 1.000000000000000200, 0.0000000000000000000 ) ) ;
#175 = DIRECTION ( 'NONE',  ( 1.000000000000000000, 0.0000000000000000000, 1.224606353822377300E-016 ) ) ;
#176 = DIRECTION ( 'NONE',  ( -1.224606353822377300E-016, 0.0000000000000000000, 1.000000000000000000 ) ) ;
#177 = AXIS2_PLACEMENT_3D ( 'NONE', #183, #176, #175 ) ;
#178 = CIRCLE ( 'NONE', #177, 2.400000000000000400 ) ;
#179 = DIRECTION ( 'NONE',  ( 0.0000000000000000000, 0.0000000000000000000, -1.000000000000000000 ) ) ;
#180 = DIRECTION ( 'NONE',  ( 0.0000000000000000000, -1.000000000000000000, 0.0000000000000000000 ) ) ;
#181 = CARTESIAN_POINT ( 'NONE',  ( 0.0000000000000000000, 0.0000000000000000000, 0.0000000000000000000 ) ) ;
#182 = AXIS2_PLACEMENT_3D ( 'NONE', #181, #180, #179 ) ;
#183 = CARTESIAN_POINT ( 'NONE',  ( 3.450844842832075500E-015, -1.399999999999999900, 0.0000000000000000000 ) ) ;
#184 = CONICAL_SURFACE ( 'NONE', #182, 2.399999999999996800, 0.7853981633974482800 ) ;
#185 = FACE_OUTER_BOUND ( 'NONE', #78, .T. ) ;
#186 = DIRECTION ( 'NONE',  ( 0.0000000000000000000, 0.0000000000000000000, 1.000000000000000000 ) ) ;
#187 = DIRECTION ( 'NONE',  ( 0.0000000000000000000, 1.000000000000000000, 0.0000000000000000000 ) ) ;
#188 = CARTESIAN_POINT ( 'NONE',  ( 0.0000000000000000000, 0.0000000000000000000, 0.0000000000000000000 ) ) ;
#189 = AXIS2_PLACEMENT_3D ( 'NONE', #188, #187, #186 ) ;
#190 = CIRCLE ( 'NONE', #189, 2.399999999999996800 ) ;
#191 = CIRCLE ( 'NONE', #160, 1.000000000000000000 ) ;
#192 = DIRECTION ( 'NONE',  ( 0.0000000000000000000, 0.0000000000000000000, 1.000000000000000000 ) ) ;
#193 = DIRECTION ( 'NONE',  ( 0.0000000000000000000, 1.000000000000000000, 0.0000000000000000000 ) ) ;
#194 = CARTESIAN_POINT ( 'NONE',  ( 0.0000000000000000000, -7.500000000000000000, 0.0000000000000000000 ) ) ;
#195 = AXIS2_PLACEMENT_3D ( 'NONE', #194, #193, #192 ) ;
#196 = CARTESIAN_POINT ( 'NONE',  ( 0.0000000000000000000, -7.500000000000000000, 0.0000000000000000000 ) ) ;
#197 = CYLINDRICAL_SURFACE ( 'NONE', #195, 1.000000000000000000 ) ;
#198 = DIRECTION ( 'NONE',  ( 0.0000000000000000000, 0.0000000000000000000, 1.000000000000000000 ) ) ;
#199 = DIRECTION ( 'NONE',  ( 0.0000000000000000000, 1.000000000000000000, 0.0000000000000000000 ) ) ;
#200 = CARTESIAN_POINT ( 'NONE',  ( 0.0000000000000000000, 2.709428535916498200, 0.0000000000000000000 ) ) ;
#201 = AXIS2_PLACEMENT_3D ( 'NONE', #200, #199, #198 ) ;
#202 = FACE_OUTER_BOUND ( 'NONE', #70, .T. ) ;
#203 = CYLINDRICAL_SURFACE ( 'NONE', #201, 3.999999999999996400 ) ;
#204 = FACE_OUTER_BOUND ( 'NONE', #64, .T. ) ;
#205 = DIRECTION ( 'NONE',  ( 0.0000000000000000000, 0.0000000000000000000, 1.000000000000000000 ) ) ;
#206 = DIRECTION ( 'NONE',  ( 0.0000000000000000000, 1.000000000000000000, 0.0000000000000000000 ) ) ;
#207 = CARTESIAN_POINT ( 'NONE',  ( 0.0000000000000000000, -1.600000000000000300, 0.0000000000000000000 ) ) ;
#208 = AXIS2_PLACEMENT_3D ( 'NONE', #207, #206, #205 ) ;
#209 = CIRCLE ( 'NONE', #208, 3.999999999999996400 ) ;
#210 = DIRECTION ( 'NONE',  ( -1.000000000000000000, 0.0000000000000000000, 0.0000000000000000000 ) ) ;
#211 = DIRECTION ( 'NONE',  ( 0.0000000000000000000, 0.0000000000000000000, 1.000000000000000000 ) ) ;
#212 = CARTESIAN_POINT ( 'NONE',  ( 3.450844842832075500E-015, -1.399999999999999900, 0.0000000000000000000 ) ) ;
#213 = AXIS2_PLACEMENT_3D ( 'NONE', #212, #211, #210 ) ;
#214 = SPHERICAL_SURFACE ( 'NONE', #213, 2.400000000000000400 ) ;
#215 = FACE_OUTER_BOUND ( 'NONE', #58, .T. ) ;
#216 = DIRECTION ( 'NONE',  ( 0.0000000000000000000, 0.0000000000000000000, -1.000000000000000000 ) ) ;
#217 = DIRECTION ( 'NONE',  ( 0.0000000000000000000, -1.000000000000000000, 0.0000000000000000000 ) ) ;
#218 = CARTESIAN_POINT ( 'NONE',  ( 0.0000000000000000000, -5.000000000000000000, 0.0000000000000000000 ) ) ;
#219 = AXIS2_PLACEMENT_3D ( 'NONE', #218, #217, #216 ) ;
#220 = CIRCLE ( 'NONE', #219, 1.000000000000000000 ) ;
#221 = DIRECTION ( 'NONE',  ( 1.000000000000000000, 0.0000000000000000000, 0.0000000000000000000 ) ) ;
#222 = DIRECTION ( 'NONE',  ( 0.0000000000000000000, 0.0000000000000000000, 1.000000000000000000 ) ) ;
#223 = CARTESIAN_POINT ( 'NONE',  ( 0.0000000000000000000, 0.0000000000000000000, 0.0000000000000000000 ) ) ;
#224 = AXIS2_PLACEMENT_3D ( 'NONE', #223, #222, #221 ) ;
#225 = ADVANCED_BREP_SHAPE_REPRESENTATION ( 'K-143-5SNM', ( #3, #224 ), #226 ) ;
#226 =( GEOMETRIC_REPRESENTATION_CONTEXT ( 3 ) GLOBAL_UNCERTAINTY_ASSIGNED_CONTEXT ( ( #227 ) ) GLOBAL_UNIT_ASSIGNED_CONTEXT ( ( #292, #229, #228 ) ) REPRESENTATION_CONTEXT ( 'NONE', 'WORKASPACE' ) );
#227 = UNCERTAINTY_MEASURE_WITH_UNIT (LENGTH_MEASURE( 1.000000000000000100E-005 ), #292, 'distance_accuracy_value', 'NONE');
#228 =( NAMED_UNIT ( * ) SI_UNIT ( $, .STERADIAN. ) SOLID_ANGLE_UNIT ( ) );
#229 =( NAMED_UNIT ( * ) PLANE_ANGLE_UNIT ( ) SI_UNIT ( $, .RADIAN. ) );
#230 = ORIENTED_EDGE ( 'NONE', *, *, #295, .T. ) ;
#231 = VERTEX_POINT ( 'NONE', #269 ) ;
#232 = VERTEX_POINT ( 'NONE', #268 ) ;
#233 = ORIENTED_EDGE ( 'NONE', *, *, #12, .T. ) ;
#234 = CC_DESIGN_PERSON_AND_ORGANIZATION_ASSIGNMENT ( #236, #235, ( #239 ) ) ;
#235 = PERSON_AND_ORGANIZATION_ROLE ( 'design_owner' ) ;
#236 = PERSON_AND_ORGANIZATION ( #238, #237 ) ;
#237 = ORGANIZATION ( 'UNSPECIFIED', 'UNSPECIFIED', '' ) ;
#238 = PERSON ( 'UNSPECIFIED', 'UNSPECIFIED', 'UNSPECIFIED', ('UNSPECIFIED'), ('UNSPECIFIED'), ('UNSPECIFIED') ) ;
#239 = PRODUCT ( 'K-143-5SNM', 'K-143-5SNM', '', ( #240 ) ) ;
#240 = MECHANICAL_CONTEXT ( 'NONE', #242, 'mechanical' ) ;
#241 = APPLICATION_PROTOCOL_DEFINITION ( 'international standard', 'config_control_design', 1994, #242 ) ;
#242 = APPLICATION_CONTEXT ( 'configuration controlled 3d designs of mechanical parts and assemblies' ) ;
#243 = DIRECTION ( 'NONE',  ( 0.0000000000000000000, -0.7071067811865475700, -0.7071067811865474600 ) ) ;
#244 = VECTOR ( 'NONE', #243, 1000.000000000000000 ) ;
#245 = CARTESIAN_POINT ( 'NONE',  ( 0.0000000000000000000, 0.0000000000000000000, -2.399999999999996800 ) ) ;
#246 = LINE ( 'NONE', #245, #244 ) ;
#247 = DIRECTION ( 'NONE',  ( 0.0000000000000000000, 0.0000000000000000000, 1.000000000000000000 ) ) ;
#248 = DIRECTION ( 'NONE',  ( 0.0000000000000000000, 1.000000000000000000, 0.0000000000000000000 ) ) ;
#249 = CARTESIAN_POINT ( 'NONE',  ( 0.0000000000000000000, 0.0000000000000000000, 0.0000000000000000000 ) ) ;
#250 = AXIS2_PLACEMENT_3D ( 'NONE', #249, #248, #247 ) ;
#251 = CIRCLE ( 'NONE', #250, 1.949358868961789800 ) ;
#252 = DIRECTION ( 'NONE',  ( 0.0000000000000000000, 0.0000000000000000000, 1.000000000000000000 ) ) ;
#253 = DIRECTION ( 'NONE',  ( 0.0000000000000000000, 1.000000000000000000, 0.0000000000000000000 ) ) ;
#254 = CARTESIAN_POINT ( 'NONE',  ( 0.0000000000000000000, 0.0000000000000000000, 0.0000000000000000000 ) ) ;
#255 = AXIS2_PLACEMENT_3D ( 'NONE', #254, #253, #252 ) ;
#256 = CIRCLE ( 'NONE', #255, 2.399999999999996800 ) ;
#257 = DIRECTION ( 'NONE',  ( 8.659274570719355400E-017, -0.7071067811865475700, 0.7071067811865474600 ) ) ;
#258 = VECTOR ( 'NONE', #257, 1000.000000000000000 ) ;
#259 = CARTESIAN_POINT ( 'NONE',  ( 2.939055249173701700E-016, 0.0000000000000000000, 2.399999999999996800 ) ) ;
#260 = LINE ( 'NONE', #259, #258 ) ;
#261 = DIRECTION ( 'NONE',  ( 0.0000000000000000000, 0.0000000000000000000, 1.000000000000000000 ) ) ;
#262 = DIRECTION ( 'NONE',  ( 0.0000000000000000000, 1.000000000000000000, 0.0000000000000000000 ) ) ;
#263 = CARTESIAN_POINT ( 'NONE',  ( -2.399999999999996800, 0.0000000000000000000, 0.0000000000000000000 ) ) ;
#264 = AXIS2_PLACEMENT_3D ( 'NONE', #263, #262, #261 ) ;
#265 = PLANE ( 'NONE',  #264 ) ;
#266 = FACE_BOUND ( 'NONE', #42, .T. ) ;
#267 = FACE_OUTER_BOUND ( 'NONE', #38, .T. ) ;
#268 = CARTESIAN_POINT ( 'NONE',  ( 0.0000000000000000000, 0.0000000000000000000, -2.399999999999996800 ) ) ;
#269 = CARTESIAN_POINT ( 'NONE',  ( 3.918740332231603400E-016, 0.0000000000000000000, 2.399999999999996800 ) ) ;
#270 = DIRECTION ( 'NONE',  ( 0.0000000000000000000, 1.000000000000000000, 0.0000000000000000000 ) ) ;
#271 = VECTOR ( 'NONE', #270, 1000.000000000000000 ) ;
#272 = CARTESIAN_POINT ( 'NONE',  ( 0.0000000000000000000, -7.500000000000000000, 1.000000000000000000 ) ) ;
#273 = LINE ( 'NONE', #272, #271 ) ;
#274 = CARTESIAN_POINT ( 'NONE',  ( 0.0000000000000000000, -1.600000000000000100, -3.999999999999996400 ) ) ;
#275 = DIRECTION ( 'NONE',  ( 0.0000000000000000000, 1.000000000000000000, 0.0000000000000000000 ) ) ;
#276 = VECTOR ( 'NONE', #275, 1000.000000000000000 ) ;
#277 = CARTESIAN_POINT ( 'NONE',  ( 4.898425415289505100E-016, 2.709428535916498200, -3.999999999999996400 ) ) ;
#278 = LINE ( 'NONE', #277, #276 ) ;
#279 = CARTESIAN_POINT ( 'NONE',  ( 0.0000000000000000000, -4.999999999999999100, 3.999999999999995600 ) ) ;
#280 = DIRECTION ( 'NONE',  ( 0.0000000000000000000, 0.0000000000000000000, 1.000000000000000000 ) ) ;
#281 = DIRECTION ( 'NONE',  ( 0.0000000000000000000, 1.000000000000000000, 0.0000000000000000000 ) ) ;
#282 = AXIS2_PLACEMENT_3D ( 'NONE', #289, #281, #280 ) ;
#283 = CYLINDRICAL_SURFACE ( 'NONE', #282, 1.000000000000000000 ) ;
#284 = FACE_OUTER_BOUND ( 'NONE', #5, .T. ) ;
#285 = DIRECTION ( 'NONE',  ( 0.0000000000000000000, 0.0000000000000000000, 1.000000000000000000 ) ) ;
#286 = DIRECTION ( 'NONE',  ( 0.0000000000000000000, 1.000000000000000000, 0.0000000000000000000 ) ) ;
#287 = AXIS2_PLACEMENT_3D ( 'NONE', #290, #286, #285 ) ;
#288 = CYLINDRICAL_SURFACE ( 'NONE', #287, 3.999999999999996400 ) ;
#289 = CARTESIAN_POINT ( 'NONE',  ( 0.0000000000000000000, -7.500000000000000000, 0.0000000000000000000 ) ) ;
#290 = CARTESIAN_POINT ( 'NONE',  ( 0.0000000000000000000, 2.709428535916498200, 0.0000000000000000000 ) ) ;
#291 = FACE_OUTER_BOUND ( 'NONE', #28, .T. ) ;
#292 =( LENGTH_UNIT ( ) NAMED_UNIT ( * ) SI_UNIT ( .MILLI., .METRE. ) );
#293 = ORIENTED_EDGE ( 'NONE', *, *, #30, .T. ) ;
#294 = ADVANCED_FACE ( 'NONE', ( #267, #266 ), #265, .T. ) ;
#295 = EDGE_CURVE ( 'NONE', #231, #13, #260, .T. ) ;
#296 = EDGE_CURVE ( 'NONE', #231, #232, #256, .T. ) ;
#297 = ORIENTED_EDGE ( 'NONE', *, *, #47, .F. ) ;
#298 = ORIENTED_EDGE ( 'NONE', *, *, #299, .T. ) ;
#299 = EDGE_CURVE ( 'NONE', #51, #50, #251, .T. ) ;
#300 = ORIENTED_EDGE ( 'NONE', *, *, #301, .F. ) ;
#301 = EDGE_CURVE ( 'NONE', #232, #10, #246, .T. ) ;
#302 = CC_DESIGN_DATE_AND_TIME_ASSIGNMENT ( #309, #303, ( #25 ) ) ;
#303 = DATE_TIME_ROLE ( 'creation_date' ) ;
#304 = CALENDAR_DATE ( 2009, 10, 8 ) ;
#305 = LOCAL_TIME ( 14, 8, 1.000000000000000000, #306 ) ;
#306 = COORDINATED_UNIVERSAL_TIME_OFFSET ( 9, 0, .AHEAD. ) ;
#307 = CC_DESIGN_APPROVAL ( #22, ( #25 ) ) ;
#308 = CALENDAR_DATE ( 2009, 10, 8 ) ;
#309 = DATE_AND_TIME ( #304, #305 ) ;
#310 = CC_DESIGN_PERSON_AND_ORGANIZATION_ASSIGNMENT ( #312, #311, ( #25 ) ) ;
#311 = PERSON_AND_ORGANIZATION_ROLE ( 'creator' ) ;
#312 = PERSON_AND_ORGANIZATION ( #238, #237 ) ;
#313 = CC_DESIGN_SECURITY_CLASSIFICATION ( #354, ( #351 ) ) ;
#314 = CC_DESIGN_APPROVAL ( #322, ( #354 ) ) ;
#315 = APPROVAL_DATE_TIME ( #316, #322 ) ;
#316 = DATE_AND_TIME ( #317, #318 ) ;
#317 = CALENDAR_DATE ( 2009, 10, 8 ) ;
#318 = LOCAL_TIME ( 14, 8, 1.000000000000000000, #319 ) ;
#319 = COORDINATED_UNIVERSAL_TIME_OFFSET ( 9, 0, .AHEAD. ) ;
#320 = APPROVAL_PERSON_ORGANIZATION ( #333, #322, #321 ) ;
#321 = APPROVAL_ROLE ( '' ) ;
#322 = APPROVAL ( #332, 'UNSPECIFIED' ) ;
#323 = PERSON_AND_ORGANIZATION ( #238, #237 ) ;
#324 = CC_DESIGN_PERSON_AND_ORGANIZATION_ASSIGNMENT ( #326, #325, ( #351 ) ) ;
#325 = PERSON_AND_ORGANIZATION_ROLE ( 'creator' ) ;
#326 = PERSON_AND_ORGANIZATION ( #238, #237 ) ;
#327 = CC_DESIGN_APPROVAL ( #348, ( #351 ) ) ;
#328 = APPROVAL_DATE_TIME ( #343, #348 ) ;
#329 = CALENDAR_DATE ( 2009, 10, 8 ) ;
#330 = APPROVAL_DATE_TIME ( #331, #22 ) ;
#331 = DATE_AND_TIME ( #308, #341 ) ;
#332 = APPROVAL_STATUS ( 'not_yet_approved' ) ;
#333 = PERSON_AND_ORGANIZATION ( #238, #237 ) ;
#334 = CC_DESIGN_DATE_AND_TIME_ASSIGNMENT ( #336, #335, ( #354 ) ) ;
#335 = DATE_TIME_ROLE ( 'classification_date' ) ;
#336 = DATE_AND_TIME ( #337, #338 ) ;
#337 = CALENDAR_DATE ( 2009, 10, 8 ) ;
#338 = LOCAL_TIME ( 14, 8, 1.000000000000000000, #339 ) ;
#339 = COORDINATED_UNIVERSAL_TIME_OFFSET ( 9, 0, .AHEAD. ) ;
#340 = CC_DESIGN_PERSON_AND_ORGANIZATION_ASSIGNMENT ( #353, #352, ( #354 ) ) ;
#341 = LOCAL_TIME ( 14, 8, 1.000000000000000000, #342 ) ;
#342 = COORDINATED_UNIVERSAL_TIME_OFFSET ( 9, 0, .AHEAD. ) ;
#343 = DATE_AND_TIME ( #329, #344 ) ;
#344 = LOCAL_TIME ( 14, 8, 1.000000000000000000, #345 ) ;
#345 = COORDINATED_UNIVERSAL_TIME_OFFSET ( 9, 0, .AHEAD. ) ;
#346 = APPROVAL_PERSON_ORGANIZATION ( #350, #348, #347 ) ;
#347 = APPROVAL_ROLE ( '' ) ;
#348 = APPROVAL ( #349, 'UNSPECIFIED' ) ;
#349 = APPROVAL_STATUS ( 'not_yet_approved' ) ;
#350 = PERSON_AND_ORGANIZATION ( #238, #237 ) ;
#351 = PRODUCT_DEFINITION_FORMATION_WITH_SPECIFIED_SOURCE ( 'ANY', '', #239, .NOT_KNOWN. ) ;
#352 = PERSON_AND_ORGANIZATION_ROLE ( 'classification_officer' ) ;
#353 = PERSON_AND_ORGANIZATION ( #238, #237 ) ;
#354 = SECURITY_CLASSIFICATION ( '', '', #355 ) ;
#355 = SECURITY_CLASSIFICATION_LEVEL ( 'unclassified' ) ;
#356 = CC_DESIGN_PERSON_AND_ORGANIZATION_ASSIGNMENT ( #323, #357, ( #351 ) ) ;
#357 = PERSON_AND_ORGANIZATION_ROLE ( 'design_supplier' ) ;
#358 = APPROVAL_PERSON_ORGANIZATION ( #24, #22, #21 ) ;
#359 = SHAPE_DEFINITION_REPRESENTATION ( #360, #225 ) ;
#360 = PRODUCT_DEFINITION_SHAPE ( 'NONE', 'NONE',  #25 ) ;
#361 = PRODUCT_RELATED_PRODUCT_CATEGORY ( 'detail', '', ( #239 ) ) ;
ENDSEC;
END-ISO-10303-21;
