ISO-10303-21;
HEADER;
FILE_DESCRIPTION (( 'STEP AP203' ),
    '1' );
FILE_NAME ('sone3D.STEP',
    '2017-12-04T05:23:53',
    ( '' ),
    ( '' ),
    'SwSTEP 2.0',
    'SolidWorks 2014',
    '' );
FILE_SCHEMA (( 'CONFIG_CONTROL_DESIGN' ));
ENDSEC;

DATA;
#1 = EDGE_CURVE ( 'NONE', #278, #102, #218, .T. ) ;
#2 = DIRECTION ( 'NONE',  ( -0.7071067811865465700, 0.7071067811865485700, 0.0000000000000000000 ) ) ;
#3 = PERSON_AND_ORGANIZATION ( #117, #72 ) ;
#4 = DIRECTION ( 'NONE',  ( 0.0000000000000000000, 0.0000000000000000000, 1.000000000000000000 ) ) ;
#5 = DIRECTION ( 'NONE',  ( 0.0000000000000000000, 0.0000000000000000000, -1.000000000000000000 ) ) ;
#6 = DIRECTION ( 'NONE',  ( -0.7071067811865465700, 0.7071067811865485700, -0.0000000000000000000 ) ) ;
#7 = CC_DESIGN_PERSON_AND_ORGANIZATION_ASSIGNMENT ( #333, #188, ( #254 ) ) ;
#8 = EDGE_LOOP ( 'NONE', ( #327, #70, #298, #232 ) ) ;
#9 = DIRECTION ( 'NONE',  ( 0.0000000000000000000, 0.0000000000000000000, 1.000000000000000000 ) ) ;
#10 = CARTESIAN_POINT ( 'NONE',  ( 0.0000000000000000000, 0.0000000000000000000, 14.00000000000000000 ) ) ;
#11 = ORIENTED_EDGE ( 'NONE', *, *, #246, .T. ) ;
#12 = LINE ( 'NONE', #154, #20 ) ;
#13 = EDGE_CURVE ( 'NONE', #340, #36, #363, .T. ) ;
#14 = ADVANCED_FACE ( 'NONE', ( #237 ), #236, .T. ) ;
#15 = ADVANCED_FACE ( 'NONE', ( #129 ), #85, .F. ) ;
#16 = CARTESIAN_POINT ( 'NONE',  ( 56.00000000000000000, 50.99999999999998600, 14.00000000000000000 ) ) ;
#17 = ADVANCED_FACE ( 'NONE', ( #306 ), #53, .F. ) ;
#18 = PLANE ( 'NONE',  #299 ) ;
#19 = VERTEX_POINT ( 'NONE', #28 ) ;
#20 = VECTOR ( 'NONE', #146, 1000.000000000000100 ) ;
#21 = ORIENTED_EDGE ( 'NONE', *, *, #208, .F. ) ;
#22 = LOCAL_TIME ( 14, 23, 53.00000000000000000, #30 ) ;
#23 = ORIENTED_EDGE ( 'NONE', *, *, #96, .T. ) ;
#24 = EDGE_CURVE ( 'NONE', #243, #257, #267, .T. ) ;
#25 = ORIENTED_EDGE ( 'NONE', *, *, #245, .F. ) ;
#26 = PRODUCT ( 'sone3D', 'sone3D', '', ( #32 ) ) ;
#27 = VECTOR ( 'NONE', #367, 1000.000000000000000 ) ;
#28 = CARTESIAN_POINT ( 'NONE',  ( -50.99999999999997900, -56.00000000000001400, 14.00000000000000000 ) ) ;
#29 = VERTEX_POINT ( 'NONE', #230 ) ;
#30 = COORDINATED_UNIVERSAL_TIME_OFFSET ( 9, 0, .AHEAD. ) ;
#31 = CC_DESIGN_PERSON_AND_ORGANIZATION_ASSIGNMENT ( #143, #158, ( #26 ) ) ;
#32 = MECHANICAL_CONTEXT ( 'NONE', #40, 'mechanical' ) ;
#33 = ADVANCED_FACE ( 'NONE', ( #60 ), #98, .F. ) ;
#34 = LINE ( 'NONE', #315, #46 ) ;
#35 = DIRECTION ( 'NONE',  ( 0.0000000000000000000, 0.0000000000000000000, -1.000000000000000000 ) ) ;
#36 = VERTEX_POINT ( 'NONE', #270 ) ;
#37 = ADVANCED_FACE ( 'NONE', ( #354 ), #18, .F. ) ;
#38 =( LENGTH_UNIT ( ) NAMED_UNIT ( * ) SI_UNIT ( .MILLI., .METRE. ) );
#39 = CARTESIAN_POINT ( 'NONE',  ( -51.00000000000002100, 55.99999999999998600, 14.00000000000000000 ) ) ;
#40 = APPLICATION_CONTEXT ( 'configuration controlled 3d designs of mechanical parts and assemblies' ) ;
#41 = CARTESIAN_POINT ( 'NONE',  ( -51.00000000000002100, 55.99999999999998600, 0.0000000000000000000 ) ) ;
#42 = EDGE_CURVE ( 'NONE', #36, #345, #12, .T. ) ;
#43 = ORIENTED_EDGE ( 'NONE', *, *, #264, .F. ) ;
#44 = FACE_OUTER_BOUND ( 'NONE', #289, .T. ) ;
#45 = APPROVAL_ROLE ( '' ) ;
#46 = VECTOR ( 'NONE', #124, 1000.000000000000000 ) ;
#47 = PLANE ( 'NONE',  #339 ) ;
#48 = COORDINATED_UNIVERSAL_TIME_OFFSET ( 9, 0, .AHEAD. ) ;
#49 = CARTESIAN_POINT ( 'NONE',  ( 56.00000000000001400, 50.99999999999993600, 14.00000000000000000 ) ) ;
#50 = COORDINATED_UNIVERSAL_TIME_OFFSET ( 9, 0, .AHEAD. ) ;
#51 = EDGE_LOOP ( 'NONE', ( #172, #160, #368, #66 ) ) ;
#52 = DIRECTION ( 'NONE',  ( 1.000000000000000000, 2.478176394252581100E-016, 0.0000000000000000000 ) ) ;
#53 = PLANE ( 'NONE',  #248 ) ;
#54 = LINE ( 'NONE', #191, #27 ) ;
#55 = DESIGN_CONTEXT ( 'detailed design', #219, 'design' ) ;
#56 = ORIENTED_EDGE ( 'NONE', *, *, #309, .F. ) ;
#57 = LOCAL_TIME ( 14, 23, 53.00000000000000000, #203 ) ;
#58 = VECTOR ( 'NONE', #140, 1000.000000000000000 ) ;
#59 = VECTOR ( 'NONE', #253, 1000.000000000000000 ) ;
#60 = FACE_OUTER_BOUND ( 'NONE', #133, .T. ) ;
#61 = FACE_OUTER_BOUND ( 'NONE', #121, .T. ) ;
#62 = DIRECTION ( 'NONE',  ( 1.239088197126290600E-016, 1.000000000000000000, 0.0000000000000000000 ) ) ;
#63 = LINE ( 'NONE', #319, #132 ) ;
#64 = PERSON_AND_ORGANIZATION ( #117, #72 ) ;
#65 = VERTEX_POINT ( 'NONE', #86 ) ;
#66 = ORIENTED_EDGE ( 'NONE', *, *, #193, .T. ) ;
#67 = DIRECTION ( 'NONE',  ( 2.478176394252581100E-016, -1.000000000000000000, 0.0000000000000000000 ) ) ;
#68 = LOCAL_TIME ( 14, 23, 53.00000000000000000, #50 ) ;
#69 = CARTESIAN_POINT ( 'NONE',  ( 56.00000000000000000, 56.00000000000001400, 14.00000000000000000 ) ) ;
#70 = ORIENTED_EDGE ( 'NONE', *, *, #282, .T. ) ;
#71 = PLANE ( 'NONE',  #313 ) ;
#72 = ORGANIZATION ( 'UNSPECIFIED', 'UNSPECIFIED', '' ) ;
#73 = PERSON_AND_ORGANIZATION_ROLE ( 'design_supplier' ) ;
#74 = LINE ( 'NONE', #39, #369 ) ;
#75 = EDGE_LOOP ( 'NONE', ( #180, #279, #271, #173 ) ) ;
#76 = LINE ( 'NONE', #135, #358 ) ;
#77 = CC_DESIGN_PERSON_AND_ORGANIZATION_ASSIGNMENT ( #346, #174, ( #244 ) ) ;
#78 = EDGE_CURVE ( 'NONE', #243, #227, #54, .T. ) ;
#79 = CLOSED_SHELL ( 'NONE', ( #255, #15, #37, #266, #14, #33, #348, #284, #17, #265 ) ) ;
#80 = DIRECTION ( 'NONE',  ( 0.0000000000000000000, -0.0000000000000000000, 1.000000000000000000 ) ) ;
#81 = EDGE_CURVE ( 'NONE', #103, #29, #74, .T. ) ;
#82 = ORIENTED_EDGE ( 'NONE', *, *, #78, .F. ) ;
#83 = PRODUCT_DEFINITION_SHAPE ( 'NONE', 'NONE',  #244 ) ;
#84 = ORIENTED_EDGE ( 'NONE', *, *, #1, .T. ) ;
#85 = PLANE ( 'NONE',  #324 ) ;
#86 = CARTESIAN_POINT ( 'NONE',  ( -56.00000000000000000, -50.99999999999998600, 0.0000000000000000000 ) ) ;
#87 = PRODUCT_DEFINITION_FORMATION_WITH_SPECIFIED_SOURCE ( 'ANY', '', #26, .NOT_KNOWN. ) ;
#88 = APPLICATION_PROTOCOL_DEFINITION ( 'international standard', 'config_control_design', 1994, #40 ) ;
#89 = LINE ( 'NONE', #240, #269 ) ;
#90 = ORIENTED_EDGE ( 'NONE', *, *, #130, .T. ) ;
#91 = DIRECTION ( 'NONE',  ( -0.7071067811865456900, 0.7071067811865494600, 0.0000000000000000000 ) ) ;
#92 = EDGE_CURVE ( 'NONE', #345, #261, #321, .T. ) ;
#93 = ORIENTED_EDGE ( 'NONE', *, *, #1, .F. ) ;
#94 = VECTOR ( 'NONE', #35, 1000.000000000000000 ) ;
#95 = CARTESIAN_POINT ( 'NONE',  ( 50.99999999999997900, 56.00000000000001400, 14.00000000000000000 ) ) ;
#96 = EDGE_CURVE ( 'NONE', #227, #103, #109, .T. ) ;
#97 = ORIENTED_EDGE ( 'NONE', *, *, #42, .T. ) ;
#98 = PLANE ( 'NONE',  #314 ) ;
#99 = DIRECTION ( 'NONE',  ( 0.0000000000000000000, -0.0000000000000000000, 1.000000000000000000 ) ) ;
#100 = DIRECTION ( 'NONE',  ( -1.000000000000000000, 1.239088197126290600E-016, 0.0000000000000000000 ) ) ;
#101 = APPROVAL_STATUS ( 'not_yet_approved' ) ;
#102 = VERTEX_POINT ( 'NONE', #342 ) ;
#103 = VERTEX_POINT ( 'NONE', #41 ) ;
#104 = CARTESIAN_POINT ( 'NONE',  ( 50.99999999999990100, -56.00000000000001400, 0.0000000000000000000 ) ) ;
#105 = DIRECTION ( 'NONE',  ( -0.7071067811865485700, -0.7071067811865464600, -0.0000000000000000000 ) ) ;
#106 = CARTESIAN_POINT ( 'NONE',  ( -56.00000000000001400, 51.00000000000000700, 0.0000000000000000000 ) ) ;
#107 = APPROVAL ( #101, 'UNSPECIFIED' ) ;
#108 = CARTESIAN_POINT ( 'NONE',  ( 55.99999999999998600, -56.00000000000001400, 0.0000000000000000000 ) ) ;
#109 = LINE ( 'NONE', #106, #163 ) ;
#110 = EDGE_LOOP ( 'NONE', ( #155, #84, #187, #360 ) ) ;
#111 = ORIENTED_EDGE ( 'NONE', *, *, #182, .F. ) ;
#112 = ORIENTED_EDGE ( 'NONE', *, *, #161, .T. ) ;
#113 = VECTOR ( 'NONE', #152, 1000.000000000000000 ) ;
#114 = DIRECTION ( 'NONE',  ( 1.000000000000000000, 0.0000000000000000000, 0.0000000000000000000 ) ) ;
#115 = AXIS2_PLACEMENT_3D ( 'NONE', #277, #100, #361 ) ;
#116 = APPROVAL_STATUS ( 'not_yet_approved' ) ;
#117 = PERSON ( 'UNSPECIFIED', 'UNSPECIFIED', 'UNSPECIFIED', ('UNSPECIFIED'), ('UNSPECIFIED'), ('UNSPECIFIED') ) ;
#118 = LINE ( 'NONE', #108, #113 ) ;
#119 = CARTESIAN_POINT ( 'NONE',  ( -53.50000000000007100, -53.49999999999991500, 14.00000000000000000 ) ) ;
#120 = DIRECTION ( 'NONE',  ( -1.000000000000000000, -2.478176394252581100E-016, 0.0000000000000000000 ) ) ;
#121 = EDGE_LOOP ( 'NONE', ( #195, #167, #21, #366 ) ) ;
#122 = CARTESIAN_POINT ( 'NONE',  ( 55.99999999999998600, -50.99999999999998600, 0.0000000000000000000 ) ) ;
#123 = LOCAL_TIME ( 14, 23, 53.00000000000000000, #48 ) ;
#124 = DIRECTION ( 'NONE',  ( -1.000000000000000000, -2.478176394252581100E-016, 0.0000000000000000000 ) ) ;
#125 = APPROVAL_PERSON_ORGANIZATION ( #347, #107, #45 ) ;
#126 = DIRECTION ( 'NONE',  ( 0.0000000000000000000, 0.0000000000000000000, 1.000000000000000000 ) ) ;
#127 = EDGE_CURVE ( 'NONE', #278, #29, #231, .T. ) ;
#128 = CARTESIAN_POINT ( 'NONE',  ( -50.99999999999998600, -56.00000000000001400, 14.00000000000000000 ) ) ;
#129 = FACE_OUTER_BOUND ( 'NONE', #110, .T. ) ;
#130 = EDGE_CURVE ( 'NONE', #345, #156, #357, .T. ) ;
#131 = DATE_AND_TIME ( #356, #57 ) ;
#132 = VECTOR ( 'NONE', #238, 1000.000000000000000 ) ;
#133 = EDGE_LOOP ( 'NONE', ( #352, #11, #111, #23, #56, #112, #184, #317 ) ) ;
#134 = DIRECTION ( 'NONE',  ( 0.0000000000000000000, 1.000000000000000000, 0.0000000000000000000 ) ) ;
#135 = CARTESIAN_POINT ( 'NONE',  ( -50.99999999999998600, -56.00000000000001400, 0.0000000000000000000 ) ) ;
#136 = DATE_AND_TIME ( #201, #123 ) ;
#137 = PRODUCT_RELATED_PRODUCT_CATEGORY ( 'detail', '', ( #26 ) ) ;
#138 = CARTESIAN_POINT ( 'NONE',  ( 0.0000000000000000000, 0.0000000000000000000, 0.0000000000000000000 ) ) ;
#139 = VECTOR ( 'NONE', #114, 1000.000000000000000 ) ;
#140 = DIRECTION ( 'NONE',  ( 0.0000000000000000000, 0.0000000000000000000, 1.000000000000000000 ) ) ;
#141 = ORIENTED_EDGE ( 'NONE', *, *, #307, .F. ) ;
#142 = FACE_OUTER_BOUND ( 'NONE', #204, .T. ) ;
#143 = PERSON_AND_ORGANIZATION ( #117, #72 ) ;
#144 = ORIENTED_EDGE ( 'NONE', *, *, #282, .F. ) ;
#145 = ORIENTED_EDGE ( 'NONE', *, *, #246, .F. ) ;
#146 = DIRECTION ( 'NONE',  ( 0.7071067811865493500, 0.7071067811865455700, -0.0000000000000000000 ) ) ;
#147 = ORIENTED_EDGE ( 'NONE', *, *, #96, .F. ) ;
#148 = CC_DESIGN_APPROVAL ( #107, ( #87 ) ) ;
#149 = VERTEX_POINT ( 'NONE', #355 ) ;
#150 = DIRECTION ( 'NONE',  ( 0.0000000000000000000, 0.0000000000000000000, -1.000000000000000000 ) ) ;
#151 = VECTOR ( 'NONE', #194, 1000.000000000000000 ) ;
#152 = DIRECTION ( 'NONE',  ( 1.239088197126290600E-016, 1.000000000000000000, 0.0000000000000000000 ) ) ;
#153 = ORIENTED_EDGE ( 'NONE', *, *, #127, .T. ) ;
#154 = CARTESIAN_POINT ( 'NONE',  ( 53.49999999999982900, -53.50000000000012100, 14.00000000000000000 ) ) ;
#155 = ORIENTED_EDGE ( 'NONE', *, *, #127, .F. ) ;
#156 = VERTEX_POINT ( 'NONE', #49 ) ;
#157 =( NAMED_UNIT ( * ) PLANE_ANGLE_UNIT ( ) SI_UNIT ( $, .RADIAN. ) );
#158 = PERSON_AND_ORGANIZATION_ROLE ( 'design_owner' ) ;
#159 = CC_DESIGN_PERSON_AND_ORGANIZATION_ASSIGNMENT ( #294, #293, ( #87 ) ) ;
#160 = ORIENTED_EDGE ( 'NONE', *, *, #92, .T. ) ;
#161 = EDGE_CURVE ( 'NONE', #102, #149, #63, .T. ) ;
#162 = CARTESIAN_POINT ( 'NONE',  ( -53.49999999999993600, 53.50000000000007800, 14.00000000000000000 ) ) ;
#163 = VECTOR ( 'NONE', #189, 1000.000000000000000 ) ;
#164 = DIRECTION ( 'NONE',  ( 0.0000000000000000000, -0.0000000000000000000, 1.000000000000000000 ) ) ;
#165 = APPLICATION_PROTOCOL_DEFINITION ( 'international standard', 'config_control_design', 1994, #219 ) ;
#166 = EDGE_CURVE ( 'NONE', #19, #36, #364, .T. ) ;
#167 = ORIENTED_EDGE ( 'NONE', *, *, #13, .F. ) ;
#168 = DIRECTION ( 'NONE',  ( 1.000000000000000000, 0.0000000000000000000, -0.0000000000000000000 ) ) ;
#169 = APPROVAL ( #179, 'UNSPECIFIED' ) ;
#170 = CARTESIAN_POINT ( 'NONE',  ( 55.99999999999998600, -50.99999999999998600, 14.00000000000000000 ) ) ;
#171 = ORIENTED_EDGE ( 'NONE', *, *, #161, .F. ) ;
#172 = ORIENTED_EDGE ( 'NONE', *, *, #130, .F. ) ;
#173 = ORIENTED_EDGE ( 'NONE', *, *, #13, .T. ) ;
#174 = PERSON_AND_ORGANIZATION_ROLE ( 'creator' ) ;
#175 = VECTOR ( 'NONE', #126, 1000.000000000000000 ) ;
#176 = VERTEX_POINT ( 'NONE', #325 ) ;
#177 = CARTESIAN_POINT ( 'NONE',  ( 50.99999999999998600, 56.00000000000001400, 14.00000000000000000 ) ) ;
#178 = APPROVAL_PERSON_ORGANIZATION ( #229, #353, #303 ) ;
#179 = APPROVAL_STATUS ( 'not_yet_approved' ) ;
#180 = ORIENTED_EDGE ( 'NONE', *, *, #166, .F. ) ;
#181 = PLANE ( 'NONE',  #115 ) ;
#182 = EDGE_CURVE ( 'NONE', #227, #65, #89, .T. ) ;
#183 = DIRECTION ( 'NONE',  ( 0.7071067811865485700, 0.7071067811865464600, 0.0000000000000000000 ) ) ;
#184 = ORIENTED_EDGE ( 'NONE', *, *, #331, .F. ) ;
#185 = VECTOR ( 'NONE', #336, 1000.000000000000100 ) ;
#186 = AXIS2_PLACEMENT_3D ( 'NONE', #10, #164, #344 ) ;
#187 = ORIENTED_EDGE ( 'NONE', *, *, #309, .T. ) ;
#188 = PERSON_AND_ORGANIZATION_ROLE ( 'classification_officer' ) ;
#189 = DIRECTION ( 'NONE',  ( 0.7071067811865484600, 0.7071067811865465700, -0.0000000000000000000 ) ) ;
#190 = MANIFOLD_SOLID_BREP ( 'C5', #79 ) ;
#191 = CARTESIAN_POINT ( 'NONE',  ( -56.00000000000001400, 51.00000000000000700, 14.00000000000000000 ) ) ;
#192 = VECTOR ( 'NONE', #150, 1000.000000000000000 ) ;
#193 = EDGE_CURVE ( 'NONE', #149, #156, #287, .T. ) ;
#194 = DIRECTION ( 'NONE',  ( 1.000000000000000000, 0.0000000000000000000, 0.0000000000000000000 ) ) ;
#195 = ORIENTED_EDGE ( 'NONE', *, *, #42, .F. ) ;
#196 =( NAMED_UNIT ( * ) SI_UNIT ( $, .STERADIAN. ) SOLID_ANGLE_UNIT ( ) );
#197 = CC_DESIGN_PERSON_AND_ORGANIZATION_ASSIGNMENT ( #3, #73, ( #87 ) ) ;
#198 = CARTESIAN_POINT ( 'NONE',  ( 55.99999999999998600, -50.99999999999998600, 14.00000000000000000 ) ) ;
#199 = LINE ( 'NONE', #128, #192 ) ;
#200 = ORIENTED_EDGE ( 'NONE', *, *, #193, .F. ) ;
#201 = CALENDAR_DATE ( 2017, 4, 12 ) ;
#202 = CARTESIAN_POINT ( 'NONE',  ( -56.00000000000001400, 51.00000000000000700, 14.00000000000000000 ) ) ;
#203 = COORDINATED_UNIVERSAL_TIME_OFFSET ( 9, 0, .AHEAD. ) ;
#204 = EDGE_LOOP ( 'NONE', ( #312, #272, #147, #82 ) ) ;
#205 = SECURITY_CLASSIFICATION_LEVEL ( 'unclassified' ) ;
#206 = EDGE_LOOP ( 'NONE', ( #25, #200, #171, #93 ) ) ;
#207 = CARTESIAN_POINT ( 'NONE',  ( 55.99999999999998600, -56.00000000000001400, 14.00000000000000000 ) ) ;
#208 = EDGE_CURVE ( 'NONE', #261, #340, #300, .T. ) ;
#209 = APPROVAL_DATE_TIME ( #131, #107 ) ;
#210 = APPROVAL_DATE_TIME ( #296, #169 ) ;
#211 = FACE_OUTER_BOUND ( 'NONE', #51, .T. ) ;
#212 = EDGE_LOOP ( 'NONE', ( #234, #251, #318, #97, #90, #285, #153, #343 ) ) ;
#213 = VECTOR ( 'NONE', #258, 1000.000000000000000 ) ;
#214 = CARTESIAN_POINT ( 'NONE',  ( -56.00000000000000000, -56.00000000000001400, 14.00000000000000000 ) ) ;
#215 = EDGE_CURVE ( 'NONE', #176, #340, #275, .T. ) ;
#216 = CARTESIAN_POINT ( 'NONE',  ( -56.00000000000000000, -50.99999999999998600, 14.00000000000000000 ) ) ;
#217 = UNCERTAINTY_MEASURE_WITH_UNIT (LENGTH_MEASURE( 1.000000000000000100E-005 ), #38, 'distance_accuracy_value', 'NONE');
#218 = LINE ( 'NONE', #359, #341 ) ;
#219 = APPLICATION_CONTEXT ( 'configuration controlled 3d designs of mechanical parts and assemblies' ) ;
#220 = VECTOR ( 'NONE', #4, 1000.000000000000000 ) ;
#221 = DIRECTION ( 'NONE',  ( -0.0000000000000000000, 0.0000000000000000000, -1.000000000000000000 ) ) ;
#222 = CC_DESIGN_APPROVAL ( #353, ( #244 ) ) ;
#223 = VECTOR ( 'NONE', #62, 1000.000000000000000 ) ;
#224 = VECTOR ( 'NONE', #6, 1000.000000000000000 ) ;
#225 = APPROVAL_PERSON_ORGANIZATION ( #64, #169, #291 ) ;
#226 = DIRECTION ( 'NONE',  ( 0.7071067811865465700, -0.7071067811865484600, 0.0000000000000000000 ) ) ;
#227 = VERTEX_POINT ( 'NONE', #239 ) ;
#228 = DIRECTION ( 'NONE',  ( 1.000000000000000000, 1.239088197126290800E-016, -0.0000000000000000000 ) ) ;
#229 = PERSON_AND_ORGANIZATION ( #117, #72 ) ;
#230 = CARTESIAN_POINT ( 'NONE',  ( -51.00000000000001400, 55.99999999999997900, 14.00000000000000000 ) ) ;
#231 = LINE ( 'NONE', #69, #316 ) ;
#232 = ORIENTED_EDGE ( 'NONE', *, *, #78, .T. ) ;
#233 = CARTESIAN_POINT ( 'NONE',  ( -56.00000000000000700, -50.99999999999995000, 14.00000000000000000 ) ) ;
#234 = ORIENTED_EDGE ( 'NONE', *, *, #24, .T. ) ;
#235 = CC_DESIGN_DATE_AND_TIME_ASSIGNMENT ( #297, #320, ( #254 ) ) ;
#236 = PLANE ( 'NONE',  #186 ) ;
#237 = FACE_OUTER_BOUND ( 'NONE', #212, .T. ) ;
#238 = DIRECTION ( 'NONE',  ( 0.7071067811865465700, -0.7071067811865485700, -0.0000000000000000000 ) ) ;
#239 = CARTESIAN_POINT ( 'NONE',  ( -56.00000000000001400, 51.00000000000000700, 0.0000000000000000000 ) ) ;
#240 = CARTESIAN_POINT ( 'NONE',  ( -56.00000000000001400, 55.99999999999998600, 0.0000000000000000000 ) ) ;
#241 = CALENDAR_DATE ( 2017, 4, 12 ) ;
#242 = CARTESIAN_POINT ( 'NONE',  ( -56.00000000000001400, 55.99999999999998600, 14.00000000000000000 ) ) ;
#243 = VERTEX_POINT ( 'NONE', #202 ) ;
#244 = PRODUCT_DEFINITION ( 'UNKNOWN', '', #87, #55 ) ;
#245 = EDGE_CURVE ( 'NONE', #156, #278, #350, .T. ) ;
#246 = EDGE_CURVE ( 'NONE', #176, #65, #76, .T. ) ;
#247 = DIRECTION ( 'NONE',  ( 1.239088197126290800E-016, -1.000000000000000000, 0.0000000000000000000 ) ) ;
#248 = AXIS2_PLACEMENT_3D ( 'NONE', #177, #105, #349 ) ;
#249 = PLANE ( 'NONE',  #276 ) ;
#250 = DATE_TIME_ROLE ( 'creation_date' ) ;
#251 = ORIENTED_EDGE ( 'NONE', *, *, #264, .T. ) ;
#252 = LOCAL_TIME ( 14, 23, 53.00000000000000000, #338 ) ;
#253 = DIRECTION ( 'NONE',  ( 0.7071067811865465700, -0.7071067811865485700, -0.0000000000000000000 ) ) ;
#254 = SECURITY_CLASSIFICATION ( '', '', #205 ) ;
#255 = ADVANCED_FACE ( 'NONE', ( #211 ), #181, .F. ) ;
#256 = AXIS2_PLACEMENT_3D ( 'NONE', #138, #9, #323 ) ;
#257 = VERTEX_POINT ( 'NONE', #233 ) ;
#258 = DIRECTION ( 'NONE',  ( -0.7071067811865484600, -0.7071067811865465700, -0.0000000000000000000 ) ) ;
#259 = CALENDAR_DATE ( 2017, 4, 12 ) ;
#260 = CC_DESIGN_APPROVAL ( #169, ( #254 ) ) ;
#261 = VERTEX_POINT ( 'NONE', #122 ) ;
#262 = EDGE_CURVE ( 'NONE', #29, #243, #308, .T. ) ;
#263 = ADVANCED_BREP_SHAPE_REPRESENTATION ( 'sone3D', ( #190, #256 ), #326 ) ;
#264 = EDGE_CURVE ( 'NONE', #257, #19, #351, .T. ) ;
#265 = ADVANCED_FACE ( 'NONE', ( #142 ), #334, .F. ) ;
#266 = ADVANCED_FACE ( 'NONE', ( #302 ), #47, .F. ) ;
#267 = LINE ( 'NONE', #273, #280 ) ;
#268 = CARTESIAN_POINT ( 'NONE',  ( -56.00000000000000000, -56.00000000000001400, 0.0000000000000000000 ) ) ;
#269 = VECTOR ( 'NONE', #328, 1000.000000000000000 ) ;
#270 = CARTESIAN_POINT ( 'NONE',  ( 50.99999999999992900, -56.00000000000001400, 14.00000000000000000 ) ) ;
#271 = ORIENTED_EDGE ( 'NONE', *, *, #215, .T. ) ;
#272 = ORIENTED_EDGE ( 'NONE', *, *, #81, .F. ) ;
#273 = CARTESIAN_POINT ( 'NONE',  ( -56.00000000000001400, 55.99999999999998600, 14.00000000000000000 ) ) ;
#274 = CARTESIAN_POINT ( 'NONE',  ( 53.50000000000007100, 53.49999999999991500, 14.00000000000000000 ) ) ;
#275 = LINE ( 'NONE', #268, #139 ) ;
#276 = AXIS2_PLACEMENT_3D ( 'NONE', #329, #183, #221 ) ;
#277 = CARTESIAN_POINT ( 'NONE',  ( 55.99999999999998600, -56.00000000000001400, 14.00000000000000000 ) ) ;
#278 = VERTEX_POINT ( 'NONE', #95 ) ;
#279 = ORIENTED_EDGE ( 'NONE', *, *, #307, .T. ) ;
#280 = VECTOR ( 'NONE', #247, 1000.000000000000000 ) ;
#281 = CARTESIAN_POINT ( 'NONE',  ( -56.00000000000001400, 51.00000000000000700, 14.00000000000000000 ) ) ;
#282 = EDGE_CURVE ( 'NONE', #65, #257, #292, .T. ) ;
#283 = DIRECTION ( 'NONE',  ( 0.0000000000000000000, 0.0000000000000000000, 1.000000000000000000 ) ) ;
#284 = ADVANCED_FACE ( 'NONE', ( #61 ), #71, .F. ) ;
#285 = ORIENTED_EDGE ( 'NONE', *, *, #245, .T. ) ;
#286 = APPROVAL_DATE_TIME ( #330, #353 ) ;
#287 = LINE ( 'NONE', #16, #58 ) ;
#288 = CARTESIAN_POINT ( 'NONE',  ( 0.0000000000000000000, 0.0000000000000000000, 0.0000000000000000000 ) ) ;
#289 = EDGE_LOOP ( 'NONE', ( #43, #144, #145, #141 ) ) ;
#290 = AXIS2_PLACEMENT_3D ( 'NONE', #281, #226, #5 ) ;
#291 = APPROVAL_ROLE ( '' ) ;
#292 = LINE ( 'NONE', #216, #220 ) ;
#293 = PERSON_AND_ORGANIZATION_ROLE ( 'creator' ) ;
#294 = PERSON_AND_ORGANIZATION ( #117, #72 ) ;
#295 = CC_DESIGN_DATE_AND_TIME_ASSIGNMENT ( #136, #250, ( #244 ) ) ;
#296 = DATE_AND_TIME ( #241, #68 ) ;
#297 = DATE_AND_TIME ( #365, #252 ) ;
#298 = ORIENTED_EDGE ( 'NONE', *, *, #24, .F. ) ;
#299 = AXIS2_PLACEMENT_3D ( 'NONE', #242, #228, #322 ) ;
#300 = LINE ( 'NONE', #310, #185 ) ;
#301 = CARTESIAN_POINT ( 'NONE',  ( 50.99999999999992900, -56.00000000000001400, 14.00000000000000000 ) ) ;
#302 = FACE_OUTER_BOUND ( 'NONE', #75, .T. ) ;
#303 = APPROVAL_ROLE ( '' ) ;
#304 = DIRECTION ( 'NONE',  ( 0.0000000000000000000, 0.0000000000000000000, -1.000000000000000000 ) ) ;
#305 = SHAPE_DEFINITION_REPRESENTATION ( #83, #263 ) ;
#306 = FACE_OUTER_BOUND ( 'NONE', #206, .T. ) ;
#307 = EDGE_CURVE ( 'NONE', #19, #176, #199, .T. ) ;
#308 = LINE ( 'NONE', #162, #213 ) ;
#309 = EDGE_CURVE ( 'NONE', #102, #103, #34, .T. ) ;
#310 = CARTESIAN_POINT ( 'NONE',  ( 55.99999999999998600, -50.99999999999998600, 0.0000000000000000000 ) ) ;
#311 = CC_DESIGN_SECURITY_CLASSIFICATION ( #254, ( #87 ) ) ;
#312 = ORIENTED_EDGE ( 'NONE', *, *, #262, .F. ) ;
#313 = AXIS2_PLACEMENT_3D ( 'NONE', #337, #91, #304 ) ;
#314 = AXIS2_PLACEMENT_3D ( 'NONE', #288, #80, #168 ) ;
#315 = CARTESIAN_POINT ( 'NONE',  ( 56.00000000000000000, 56.00000000000001400, 0.0000000000000000000 ) ) ;
#316 = VECTOR ( 'NONE', #120, 1000.000000000000000 ) ;
#317 = ORIENTED_EDGE ( 'NONE', *, *, #208, .T. ) ;
#318 = ORIENTED_EDGE ( 'NONE', *, *, #166, .T. ) ;
#319 = CARTESIAN_POINT ( 'NONE',  ( 50.99999999999998600, 56.00000000000001400, 0.0000000000000000000 ) ) ;
#320 = DATE_TIME_ROLE ( 'classification_date' ) ;
#321 = LINE ( 'NONE', #198, #94 ) ;
#322 = DIRECTION ( 'NONE',  ( -1.239088197126290800E-016, 1.000000000000000000, 0.0000000000000000000 ) ) ;
#323 = DIRECTION ( 'NONE',  ( 1.000000000000000000, 0.0000000000000000000, 0.0000000000000000000 ) ) ;
#324 = AXIS2_PLACEMENT_3D ( 'NONE', #335, #67, #52 ) ;
#325 = CARTESIAN_POINT ( 'NONE',  ( -50.99999999999998600, -56.00000000000001400, 0.0000000000000000000 ) ) ;
#326 =( GEOMETRIC_REPRESENTATION_CONTEXT ( 3 ) GLOBAL_UNCERTAINTY_ASSIGNED_CONTEXT ( ( #217 ) ) GLOBAL_UNIT_ASSIGNED_CONTEXT ( ( #38, #157, #196 ) ) REPRESENTATION_CONTEXT ( 'NONE', 'WORKASPACE' ) );
#327 = ORIENTED_EDGE ( 'NONE', *, *, #182, .T. ) ;
#328 = DIRECTION ( 'NONE',  ( 1.239088197126290800E-016, -1.000000000000000000, 0.0000000000000000000 ) ) ;
#329 = CARTESIAN_POINT ( 'NONE',  ( -50.99999999999998600, -56.00000000000001400, 14.00000000000000000 ) ) ;
#330 = DATE_AND_TIME ( #259, #22 ) ;
#331 = EDGE_CURVE ( 'NONE', #261, #149, #118, .T. ) ;
#332 = CARTESIAN_POINT ( 'NONE',  ( -56.00000000000000000, -56.00000000000001400, 14.00000000000000000 ) ) ;
#333 = PERSON_AND_ORGANIZATION ( #117, #72 ) ;
#334 = PLANE ( 'NONE',  #290 ) ;
#335 = CARTESIAN_POINT ( 'NONE',  ( 56.00000000000000000, 56.00000000000001400, 14.00000000000000000 ) ) ;
#336 = DIRECTION ( 'NONE',  ( -0.7071067811865493500, -0.7071067811865455700, -0.0000000000000000000 ) ) ;
#337 = CARTESIAN_POINT ( 'NONE',  ( 55.99999999999998600, -50.99999999999998600, 14.00000000000000000 ) ) ;
#338 = COORDINATED_UNIVERSAL_TIME_OFFSET ( 9, 0, .AHEAD. ) ;
#339 = AXIS2_PLACEMENT_3D ( 'NONE', #332, #134, #99 ) ;
#340 = VERTEX_POINT ( 'NONE', #104 ) ;
#341 = VECTOR ( 'NONE', #362, 1000.000000000000000 ) ;
#342 = CARTESIAN_POINT ( 'NONE',  ( 50.99999999999998600, 56.00000000000001400, 0.0000000000000000000 ) ) ;
#343 = ORIENTED_EDGE ( 'NONE', *, *, #262, .T. ) ;
#344 = DIRECTION ( 'NONE',  ( 1.000000000000000000, 0.0000000000000000000, -0.0000000000000000000 ) ) ;
#345 = VERTEX_POINT ( 'NONE', #170 ) ;
#346 = PERSON_AND_ORGANIZATION ( #117, #72 ) ;
#347 = PERSON_AND_ORGANIZATION ( #117, #72 ) ;
#348 = ADVANCED_FACE ( 'NONE', ( #44 ), #249, .F. ) ;
#349 = DIRECTION ( 'NONE',  ( 0.0000000000000000000, 0.0000000000000000000, -1.000000000000000000 ) ) ;
#350 = LINE ( 'NONE', #274, #224 ) ;
#351 = LINE ( 'NONE', #119, #59 ) ;
#352 = ORIENTED_EDGE ( 'NONE', *, *, #215, .F. ) ;
#353 = APPROVAL ( #116, 'UNSPECIFIED' ) ;
#354 = FACE_OUTER_BOUND ( 'NONE', #8, .T. ) ;
#355 = CARTESIAN_POINT ( 'NONE',  ( 56.00000000000000000, 50.99999999999998600, 0.0000000000000000000 ) ) ;
#356 = CALENDAR_DATE ( 2017, 4, 12 ) ;
#357 = LINE ( 'NONE', #207, #223 ) ;
#358 = VECTOR ( 'NONE', #2, 1000.000000000000000 ) ;
#359 = CARTESIAN_POINT ( 'NONE',  ( 50.99999999999998600, 56.00000000000001400, 14.00000000000000000 ) ) ;
#360 = ORIENTED_EDGE ( 'NONE', *, *, #81, .T. ) ;
#361 = DIRECTION ( 'NONE',  ( -1.239088197126290600E-016, -1.000000000000000000, 0.0000000000000000000 ) ) ;
#362 = DIRECTION ( 'NONE',  ( 0.0000000000000000000, 0.0000000000000000000, -1.000000000000000000 ) ) ;
#363 = LINE ( 'NONE', #301, #175 ) ;
#364 = LINE ( 'NONE', #214, #151 ) ;
#365 = CALENDAR_DATE ( 2017, 4, 12 ) ;
#366 = ORIENTED_EDGE ( 'NONE', *, *, #92, .F. ) ;
#367 = DIRECTION ( 'NONE',  ( 0.0000000000000000000, 0.0000000000000000000, -1.000000000000000000 ) ) ;
#368 = ORIENTED_EDGE ( 'NONE', *, *, #331, .T. ) ;
#369 = VECTOR ( 'NONE', #283, 1000.000000000000000 ) ;
ENDSEC;
END-ISO-10303-21;
