ISO-10303-21;
HEADER;
FILE_DESCRIPTION (( 'STEP AP203' ),
    '1' );
FILE_NAME ('FE-460-4-F3.STEP',
    '2023-08-10T07:29:18',
    ( '' ),
    ( '' ),
    'SwSTEP 2.0',
    'SolidWorks 2021',
    '' );
FILE_SCHEMA (( 'CONFIG_CONTROL_DESIGN' ));
ENDSEC;

DATA;
#1 = ORIENTED_EDGE ( 'NONE', *, *, #29, .F. ) ;
#2 =( LENGTH_UNIT ( ) NAMED_UNIT ( * ) SI_UNIT ( .MILLI., .METRE. ) );
#3 = CARTESIAN_POINT ( 'NONE',  ( 34.99999999999997868, 40.00000000000001421, 0.000000000000000000 ) ) ;
#4 = CLOSED_SHELL ( 'NONE', ( #92, #124, #320, #138, #60, #96, #54, #243, #326, #108 ) ) ;
#5 = DIRECTION ( 'NONE',  ( 1.000000000000000000, 0.000000000000000000, 0.000000000000000000 ) ) ;
#6 = DATE_TIME_ROLE ( 'creation_date' ) ;
#7 = CC_DESIGN_PERSON_AND_ORGANIZATION_ASSIGNMENT ( #328, #38, ( #175 ) ) ;
#8 = VECTOR ( 'NONE', #118, 1000.000000000000000 ) ;
#9 = ORIENTED_EDGE ( 'NONE', *, *, #291, .T. ) ;
#10 = PLANE ( 'NONE',  #263 ) ;
#11 = VERTEX_POINT ( 'NONE', #81 ) ;
#12 = DIRECTION ( 'NONE',  ( -3.469446951953613696E-16, 1.000000000000000000, 0.000000000000000000 ) ) ;
#13 = ORIENTED_EDGE ( 'NONE', *, *, #304, .T. ) ;
#14 = CC_DESIGN_SECURITY_CLASSIFICATION ( #111, ( #103 ) ) ;
#15 = DIRECTION ( 'NONE',  ( 1.000000000000000000, 8.673617379884036705E-17, 0.000000000000000000 ) ) ;
#16 = SHAPE_DEFINITION_REPRESENTATION ( #295, #227 ) ;
#17 = ORIENTED_EDGE ( 'NONE', *, *, #253, .T. ) ;
#18 = DIRECTION ( 'NONE',  ( 0.7071067811865504593, 0.7071067811865445751, -0.000000000000000000 ) ) ;
#19 = DATE_AND_TIME ( #300, #248 ) ;
#20 = DIRECTION ( 'NONE',  ( 0.7071067811865504593, 0.7071067811865445751, -0.000000000000000000 ) ) ;
#21 = FACE_OUTER_BOUND ( 'NONE', #260, .T. ) ;
#22 = APPROVAL ( #213, 'UNSPECIFIED' ) ;
#23 = EDGE_LOOP ( 'NONE', ( #262, #13, #296, #281 ) ) ;
#24 = AXIS2_PLACEMENT_3D ( 'NONE', #178, #115, #314 ) ;
#25 = DIRECTION ( 'NONE',  ( -0.7071067811865504593, -0.7071067811865445751, -0.000000000000000000 ) ) ;
#26 = ORIENTED_EDGE ( 'NONE', *, *, #162, .T. ) ;
#27 = FACE_OUTER_BOUND ( 'NONE', #318, .T. ) ;
#28 = FACE_OUTER_BOUND ( 'NONE', #308, .T. ) ;
#29 = EDGE_CURVE ( 'NONE', #56, #258, #86, .T. ) ;
#30 = CARTESIAN_POINT ( 'NONE',  ( 39.99999999999997868, 34.99999999999998579, 0.000000000000000000 ) ) ;
#31 = VERTEX_POINT ( 'NONE', #198 ) ;
#32 = LINE ( 'NONE', #153, #39 ) ;
#33 = VECTOR ( 'NONE', #135, 1000.000000000000000 ) ;
#34 = CARTESIAN_POINT ( 'NONE',  ( -39.99999999999997868, -34.99999999999997868, 6.500000000000000000 ) ) ;
#35 = CARTESIAN_POINT ( 'NONE',  ( 39.99999999999997868, 34.99999999999998579, 6.500000000000000000 ) ) ;
#36 = PLANE ( 'NONE',  #221 ) ;
#38 = PERSON_AND_ORGANIZATION_ROLE ( 'design_owner' ) ;
#37 = CC_DESIGN_PERSON_AND_ORGANIZATION_ASSIGNMENT ( #129, #242, ( #103 ) ) ;
#39 = VECTOR ( 'NONE', #239, 1000.000000000000000 ) ;
#40 = CALENDAR_DATE ( 2023, 10, 8 ) ;
#41 = EDGE_CURVE ( 'NONE', #117, #196, #63, .T. ) ;
#42 = DIRECTION ( 'NONE',  ( 0.000000000000000000, 0.000000000000000000, 1.000000000000000000 ) ) ;
#43 = ORIENTED_EDGE ( 'NONE', *, *, #29, .T. ) ;
#44 = CARTESIAN_POINT ( 'NONE',  ( 0.000000000000000000, 0.000000000000000000, 0.000000000000000000 ) ) ;
#45 = VECTOR ( 'NONE', #286, 1000.000000000000000 ) ;
#46 = DIRECTION ( 'NONE',  ( 0.000000000000000000, -0.000000000000000000, 1.000000000000000000 ) ) ;
#47 = ORIENTED_EDGE ( 'NONE', *, *, #276, .T. ) ;
#48 = DIRECTION ( 'NONE',  ( -1.000000000000000000, -3.469446951953614682E-16, 0.000000000000000000 ) ) ;
#49 = VERTEX_POINT ( 'NONE', #53 ) ;
#50 = DIRECTION ( 'NONE',  ( -0.7071067811865494601, -0.7071067811865455743, -0.000000000000000000 ) ) ;
#51 = VECTOR ( 'NONE', #12, 1000.000000000000000 ) ;
#52 = PLANE ( 'NONE',  #72 ) ;
#53 = CARTESIAN_POINT ( 'NONE',  ( 34.99999999999997868, -40.00000000000000000, 6.500000000000000000 ) ) ;
#54 = ADVANCED_FACE ( 'NONE', ( #28 ), #144, .F. ) ;
#55 = CARTESIAN_POINT ( 'NONE',  ( -39.99999999999997868, 40.00000000000000711, 6.500000000000000000 ) ) ;
#56 = VERTEX_POINT ( 'NONE', #363 ) ;
#57 = VERTEX_POINT ( 'NONE', #114 ) ;
#58 = VECTOR ( 'NONE', #319, 1000.000000000000114 ) ;
#59 = DIRECTION ( 'NONE',  ( 0.000000000000000000, 0.000000000000000000, -1.000000000000000000 ) ) ;
#60 = ADVANCED_FACE ( 'NONE', ( #231 ), #338, .T. ) ;
#61 = ORIENTED_EDGE ( 'NONE', *, *, #259, .F. ) ;
#62 = CARTESIAN_POINT ( 'NONE',  ( 39.99999999999997868, 40.00000000000001421, 6.500000000000000000 ) ) ;
#63 = LINE ( 'NONE', #203, #335 ) ;
#64 = CARTESIAN_POINT ( 'NONE',  ( 40.00000000000000711, -35.00000000000000711, 0.000000000000000000 ) ) ;
#65 = DIRECTION ( 'NONE',  ( -0.7071067811865504593, -0.7071067811865445751, -0.000000000000000000 ) ) ;
#66 = DIRECTION ( 'NONE',  ( 0.7071067811865445751, -0.7071067811865504593, 0.000000000000000000 ) ) ;
#67 = DATE_AND_TIME ( #40, #369 ) ;
#68 = APPROVAL_PERSON_ORGANIZATION ( #181, #22, #212 ) ;
#69 = EDGE_CURVE ( 'NONE', #11, #117, #238, .T. ) ;
#70 = PERSON_AND_ORGANIZATION_ROLE ( 'creator' ) ;
#71 = ORIENTED_EDGE ( 'NONE', *, *, #368, .F. ) ;
#72 = AXIS2_PLACEMENT_3D ( 'NONE', #246, #48, #80 ) ;
#73 = VERTEX_POINT ( 'NONE', #210 ) ;
#74 = DIRECTION ( 'NONE',  ( 0.000000000000000000, 0.000000000000000000, -1.000000000000000000 ) ) ;
#75 = CARTESIAN_POINT ( 'NONE',  ( -39.99999999999997868, -34.99999999999997868, 6.500000000000000000 ) ) ;
#76 = CARTESIAN_POINT ( 'NONE',  ( 40.00000000000000711, -40.00000000000000000, 0.000000000000000000 ) ) ;
#77 = CARTESIAN_POINT ( 'NONE',  ( -39.99999999999997868, 35.00000000000001421, 0.000000000000000000 ) ) ;
#78 = CC_DESIGN_DATE_AND_TIME_ASSIGNMENT ( #184, #6, ( #230 ) ) ;
#79 = AXIS2_PLACEMENT_3D ( 'NONE', #199, #194, #251 ) ;
#80 = DIRECTION ( 'NONE',  ( 3.469446951953614682E-16, -1.000000000000000000, 0.000000000000000000 ) ) ;
#81 = CARTESIAN_POINT ( 'NONE',  ( -39.99999999999997868, -34.99999999999997868, 0.000000000000000000 ) ) ;
#82 = DIRECTION ( 'NONE',  ( 1.000000000000000000, 8.673617379884036705E-17, 0.000000000000000000 ) ) ;
#83 = CALENDAR_DATE ( 2023, 10, 8 ) ;
#84 = ORIENTED_EDGE ( 'NONE', *, *, #127, .F. ) ;
#85 = LINE ( 'NONE', #174, #244 ) ;
#86 = LINE ( 'NONE', #77, #156 ) ;
#87 = AXIS2_PLACEMENT_3D ( 'NONE', #256, #149, #334 ) ;
#88 = LINE ( 'NONE', #324, #362 ) ;
#89 = ORIENTED_EDGE ( 'NONE', *, *, #234, .T. ) ;
#90 = DIRECTION ( 'NONE',  ( 1.000000000000000000, 8.673617379884042868E-17, 0.000000000000000000 ) ) ;
#91 = CARTESIAN_POINT ( 'NONE',  ( -34.99999999999995026, 40.00000000000000711, 0.000000000000000000 ) ) ;
#92 = ADVANCED_FACE ( 'NONE', ( #322 ), #36, .F. ) ;
#93 = DIRECTION ( 'NONE',  ( 0.000000000000000000, 0.000000000000000000, 1.000000000000000000 ) ) ;
#94 = APPROVAL_STATUS ( 'not_yet_approved' ) ;
#95 = CALENDAR_DATE ( 2023, 10, 8 ) ;
#96 = ADVANCED_FACE ( 'NONE', ( #297 ), #100, .F. ) ;
#97 = PERSON_AND_ORGANIZATION_ROLE ( 'design_supplier' ) ;
#98 = AXIS2_PLACEMENT_3D ( 'NONE', #125, #66, #236 ) ;
#99 = ORIENTED_EDGE ( 'NONE', *, *, #162, .F. ) ;
#100 = PLANE ( 'NONE',  #158 ) ;
#101 = LINE ( 'NONE', #331, #298 ) ;
#102 = COORDINATED_UNIVERSAL_TIME_OFFSET ( 9, 0, .AHEAD. ) ;
#103 = PRODUCT_DEFINITION_FORMATION_WITH_SPECIFIED_SOURCE ( 'ANY', '', #175, .NOT_KNOWN. ) ;
#104 = FACE_OUTER_BOUND ( 'NONE', #342, .T. ) ;
#105 = ORIENTED_EDGE ( 'NONE', *, *, #253, .F. ) ;
#106 = LINE ( 'NONE', #355, #292 ) ;
#107 = APPROVAL_DATE_TIME ( #19, #116 ) ;
#108 = ADVANCED_FACE ( 'NONE', ( #345 ), #10, .F. ) ;
#109 = ORIENTED_EDGE ( 'NONE', *, *, #207, .T. ) ;
#110 = ORIENTED_EDGE ( 'NONE', *, *, #193, .F. ) ;
#111 = SECURITY_CLASSIFICATION ( '', '', #294 ) ;
#112 = VECTOR ( 'NONE', #93, 1000.000000000000000 ) ;
#113 = LINE ( 'NONE', #222, #136 ) ;
#114 = CARTESIAN_POINT ( 'NONE',  ( 40.00000000000000711, -35.00000000000000711, 6.500000000000000000 ) ) ;
#115 = DIRECTION ( 'NONE',  ( -0.7071067811865445751, 0.7071067811865504593, 0.000000000000000000 ) ) ;
#116 = APPROVAL ( #303, 'UNSPECIFIED' ) ;
#117 = VERTEX_POINT ( 'NONE', #75 ) ;
#118 = DIRECTION ( 'NONE',  ( -1.000000000000000000, -8.673617379884040402E-17, 0.000000000000000000 ) ) ;
#119 = ORIENTED_EDGE ( 'NONE', *, *, #288, .T. ) ;
#120 = CC_DESIGN_APPROVAL ( #22, ( #230 ) ) ;
#121 = LINE ( 'NONE', #62, #8 ) ;
#122 = ORIENTED_EDGE ( 'NONE', *, *, #41, .T. ) ;
#123 = DIRECTION ( 'NONE',  ( -3.469446951953613696E-16, 1.000000000000000000, 0.000000000000000000 ) ) ;
#124 = ADVANCED_FACE ( 'NONE', ( #226 ), #52, .F. ) ;
#125 = CARTESIAN_POINT ( 'NONE',  ( -39.99999999999997868, 35.00000000000001421, 6.500000000000000000 ) ) ;
#126 = VECTOR ( 'NONE', #358, 1000.000000000000114 ) ;
#127 = EDGE_CURVE ( 'NONE', #277, #367, #197, .T. ) ;
#128 = COORDINATED_UNIVERSAL_TIME_OFFSET ( 9, 0, .AHEAD. ) ;
#129 = PERSON_AND_ORGANIZATION ( #206, #323 ) ;
#130 = CARTESIAN_POINT ( 'NONE',  ( -39.99999999999997868, -40.00000000000000711, 6.500000000000000000 ) ) ;
#131 = LOCAL_TIME ( 16, 29, 18.00000000000000000, #182 ) ;
#132 = ORIENTED_EDGE ( 'NONE', *, *, #291, .F. ) ;
#133 = CARTESIAN_POINT ( 'NONE',  ( 34.99999999999997868, 40.00000000000001421, 6.500000000000000000 ) ) ;
#134 = DIRECTION ( 'NONE',  ( 0.000000000000000000, 0.000000000000000000, -1.000000000000000000 ) ) ;
#135 = DIRECTION ( 'NONE',  ( 0.000000000000000000, 0.000000000000000000, -1.000000000000000000 ) ) ;
#136 = VECTOR ( 'NONE', #337, 1000.000000000000000 ) ;
#137 = ORIENTED_EDGE ( 'NONE', *, *, #368, .T. ) ;
#138 = ADVANCED_FACE ( 'NONE', ( #104 ), #141, .F. ) ;
#139 = CARTESIAN_POINT ( 'NONE',  ( 34.99999999999997868, -40.00000000000000000, 0.000000000000000000 ) ) ;
#140 = CC_DESIGN_PERSON_AND_ORGANIZATION_ASSIGNMENT ( #289, #310, ( #111 ) ) ;
#141 = PLANE ( 'NONE',  #79 ) ;
#142 = ORIENTED_EDGE ( 'NONE', *, *, #288, .F. ) ;
#143 = PLANE ( 'NONE',  #24 ) ;
#144 = PLANE ( 'NONE',  #87 ) ;
#145 = VECTOR ( 'NONE', #18, 1000.000000000000000 ) ;
#146 = CARTESIAN_POINT ( 'NONE',  ( 39.99999999999997868, 40.00000000000001421, 6.500000000000000000 ) ) ;
#147 = VERTEX_POINT ( 'NONE', #139 ) ;
#148 = DIRECTION ( 'NONE',  ( -0.7071067811865445751, 0.7071067811865504593, 0.000000000000000000 ) ) ;
#149 = DIRECTION ( 'NONE',  ( 0.7071067811865504593, 0.7071067811865445751, 0.000000000000000000 ) ) ;
#150 = LINE ( 'NONE', #35, #330 ) ;
#151 = EDGE_LOOP ( 'NONE', ( #110, #195, #61, #84 ) ) ;
#152 = AXIS2_PLACEMENT_3D ( 'NONE', #146, #261, #90 ) ;
#153 = CARTESIAN_POINT ( 'NONE',  ( 39.99999999999997868, 40.00000000000001421, 0.000000000000000000 ) ) ;
#154 = EDGE_CURVE ( 'NONE', #273, #329, #165, .T. ) ;
#155 = MECHANICAL_CONTEXT ( 'NONE', #364, 'mechanical' ) ;
#156 = VECTOR ( 'NONE', #20, 1000.000000000000000 ) ;
#157 = APPROVAL_DATE_TIME ( #67, #354 ) ;
#158 = AXIS2_PLACEMENT_3D ( 'NONE', #44, #271, #218 ) ;
#159 = EDGE_CURVE ( 'NONE', #73, #56, #106, .T. ) ;
#160 = ORIENTED_EDGE ( 'NONE', *, *, #217, .F. ) ;
#161 = ORIENTED_EDGE ( 'NONE', *, *, #269, .F. ) ;
#162 = EDGE_CURVE ( 'NONE', #56, #11, #113, .T. ) ;
#163 = CARTESIAN_POINT ( 'NONE',  ( -39.99999999999997868, -40.00000000000000711, 6.500000000000000000 ) ) ;
#164 = CC_DESIGN_DATE_AND_TIME_ASSIGNMENT ( #192, #200, ( #111 ) ) ;
#165 = LINE ( 'NONE', #76, #51 ) ;
#166 = ORIENTED_EDGE ( 'NONE', *, *, #234, .F. ) ;
#167 = CARTESIAN_POINT ( 'NONE',  ( 34.99999999999997868, 40.00000000000001421, 6.500000000000000000 ) ) ;
#168 = DIRECTION ( 'NONE',  ( 0.7071067811865445751, -0.7071067811865504593, -0.000000000000000000 ) ) ;
#169 = PRODUCT_RELATED_PRODUCT_CATEGORY ( 'detail', '', ( #175 ) ) ;
#170 = EDGE_LOOP ( 'NONE', ( #119, #311, #105, #301 ) ) ;
#171 =( GEOMETRIC_REPRESENTATION_CONTEXT ( 3 ) GLOBAL_UNCERTAINTY_ASSIGNED_CONTEXT ( ( #188 ) ) GLOBAL_UNIT_ASSIGNED_CONTEXT ( ( #2, #264, #346 ) ) REPRESENTATION_CONTEXT ( 'NONE', 'WORKASPACE' ) );
#172 = LINE ( 'NONE', #366, #45 ) ;
#173 = ORIENTED_EDGE ( 'NONE', *, *, #41, .F. ) ;
#174 = CARTESIAN_POINT ( 'NONE',  ( 40.00000000000000711, -35.00000000000000711, 0.000000000000000000 ) ) ;
#175 = PRODUCT ( 'FE-460-4-F3', 'FE-460-4-F3', '', ( #155 ) ) ;
#176 = ORIENTED_EDGE ( 'NONE', *, *, #332, .T. ) ;
#177 = EDGE_CURVE ( 'NONE', #361, #147, #302, .T. ) ;
#178 = CARTESIAN_POINT ( 'NONE',  ( 40.00000000000000711, -35.00000000000000711, 6.500000000000000000 ) ) ;
#179 = LINE ( 'NONE', #282, #280 ) ;
#180 = CARTESIAN_POINT ( 'NONE',  ( 34.99999999999997868, 40.00000000000001421, 0.000000000000000000 ) ) ;
#181 = PERSON_AND_ORGANIZATION ( #206, #323 ) ;
#182 = COORDINATED_UNIVERSAL_TIME_OFFSET ( 9, 0, .AHEAD. ) ;
#183 = CC_DESIGN_APPROVAL ( #116, ( #111 ) ) ;
#184 = DATE_AND_TIME ( #95, #131 ) ;
#185 = ORIENTED_EDGE ( 'NONE', *, *, #154, .F. ) ;
#186 = EDGE_CURVE ( 'NONE', #258, #225, #101, .T. ) ;
#187 = DIRECTION ( 'NONE',  ( 1.000000000000000000, 0.000000000000000000, -0.000000000000000000 ) ) ;
#188 = UNCERTAINTY_MEASURE_WITH_UNIT (LENGTH_MEASURE( 1.000000000000000082E-05 ), #2, 'distance_accuracy_value', 'NONE');
#189 = ORIENTED_EDGE ( 'NONE', *, *, #177, .T. ) ;
#190 = VECTOR ( 'NONE', #278, 1000.000000000000000 ) ;
#191 = DIRECTION ( 'NONE',  ( 0.000000000000000000, 0.000000000000000000, 1.000000000000000000 ) ) ;
#192 = DATE_AND_TIME ( #83, #356 ) ;
#193 = EDGE_CURVE ( 'NONE', #31, #277, #299, .T. ) ;
#194 = DIRECTION ( 'NONE',  ( 1.000000000000000000, 0.000000000000000000, -0.000000000000000000 ) ) ;
#195 = ORIENTED_EDGE ( 'NONE', *, *, #357, .F. ) ;
#196 = VERTEX_POINT ( 'NONE', #359 ) ;
#197 = LINE ( 'NONE', #167, #33 ) ;
#198 = CARTESIAN_POINT ( 'NONE',  ( 39.99999999999997868, 34.99999999999998579, 6.500000000000000000 ) ) ;
#199 = CARTESIAN_POINT ( 'NONE',  ( -39.99999999999997868, 40.00000000000000711, 6.500000000000000000 ) ) ;
#200 = DATE_TIME_ROLE ( 'classification_date' ) ;
#201 = CARTESIAN_POINT ( 'NONE',  ( 0.000000000000000000, 0.000000000000000000, 6.500000000000000000 ) ) ;
#202 = CARTESIAN_POINT ( 'NONE',  ( -34.99999999999999289, -40.00000000000000711, 6.500000000000000000 ) ) ;
#203 = CARTESIAN_POINT ( 'NONE',  ( -37.50000000000014921, -37.49999999999983658, 6.500000000000000000 ) ) ;
#204 = APPROVAL_PERSON_ORGANIZATION ( #312, #116, #307 ) ;
#205 = LINE ( 'NONE', #3, #58 ) ;
#206 = PERSON ( 'UNSPECIFIED', 'UNSPECIFIED', 'UNSPECIFIED', ('UNSPECIFIED'), ('UNSPECIFIED'), ('UNSPECIFIED') ) ;
#207 = EDGE_CURVE ( 'NONE', #196, #49, #223, .T. ) ;
#208 = ORIENTED_EDGE ( 'NONE', *, *, #207, .F. ) ;
#209 = DIRECTION ( 'NONE',  ( 0.000000000000000000, 0.000000000000000000, 1.000000000000000000 ) ) ;
#210 = CARTESIAN_POINT ( 'NONE',  ( -39.99999999999997868, 35.00000000000001421, 6.500000000000000000 ) ) ;
#211 = AXIS2_PLACEMENT_3D ( 'NONE', #268, #42, #5 ) ;
#212 = APPROVAL_ROLE ( '' ) ;
#213 = APPROVAL_STATUS ( 'not_yet_approved' ) ;
#214 = APPLICATION_PROTOCOL_DEFINITION ( 'international standard', 'config_control_design', 1994, #364 ) ;
#215 = AXIS2_PLACEMENT_3D ( 'NONE', #201, #46, #187 ) ;
#216 = DIRECTION ( 'NONE',  ( -8.673617379884037937E-17, 1.000000000000000000, 0.000000000000000000 ) ) ;
#217 = EDGE_CURVE ( 'NONE', #49, #57, #224, .T. ) ;
#218 = DIRECTION ( 'NONE',  ( 1.000000000000000000, 0.000000000000000000, -0.000000000000000000 ) ) ;
#219 = APPLICATION_CONTEXT ( 'configuration controlled 3d designs of mechanical parts and assemblies' ) ;
#220 = ORIENTED_EDGE ( 'NONE', *, *, #69, .F. ) ;
#221 = AXIS2_PLACEMENT_3D ( 'NONE', #130, #216, #352 ) ;
#222 = CARTESIAN_POINT ( 'NONE',  ( -39.99999999999997868, 40.00000000000000711, 0.000000000000000000 ) ) ;
#223 = LINE ( 'NONE', #163, #270 ) ;
#224 = LINE ( 'NONE', #333, #145 ) ;
#225 = VERTEX_POINT ( 'NONE', #306 ) ;
#226 = FACE_OUTER_BOUND ( 'NONE', #23, .T. ) ;
#227 = ADVANCED_BREP_SHAPE_REPRESENTATION ( 'FE-460-4-F3', ( #254, #211 ), #171 ) ;
#228 = VECTOR ( 'NONE', #245, 1000.000000000000000 ) ;
#229 = ORIENTED_EDGE ( 'NONE', *, *, #159, .F. ) ;
#230 = PRODUCT_DEFINITION ( 'UNKNOWN', '', #103, #247 ) ;
#231 = FACE_OUTER_BOUND ( 'NONE', #283, .T. ) ;
#232 = PLANE ( 'NONE',  #152 ) ;
#233 = ORIENTED_EDGE ( 'NONE', *, *, #353, .F. ) ;
#234 = EDGE_CURVE ( 'NONE', #73, #117, #252, .T. ) ;
#235 = ORIENTED_EDGE ( 'NONE', *, *, #186, .F. ) ;
#236 = DIRECTION ( 'NONE',  ( 0.000000000000000000, 0.000000000000000000, -1.000000000000000000 ) ) ;
#237 = CARTESIAN_POINT ( 'NONE',  ( -34.99999999999999289, -40.00000000000000711, 0.000000000000000000 ) ) ;
#238 = LINE ( 'NONE', #34, #228 ) ;
#239 = DIRECTION ( 'NONE',  ( -1.000000000000000000, -8.673617379884040402E-17, 0.000000000000000000 ) ) ;
#240 = CC_DESIGN_PERSON_AND_ORGANIZATION_ASSIGNMENT ( #350, #97, ( #103 ) ) ;
#241 = DATE_AND_TIME ( #266, #351 ) ;
#242 = PERSON_AND_ORGANIZATION_ROLE ( 'creator' ) ;
#243 = ADVANCED_FACE ( 'NONE', ( #21 ), #143, .F. ) ;
#244 = VECTOR ( 'NONE', #65, 1000.000000000000000 ) ;
#245 = DIRECTION ( 'NONE',  ( 0.000000000000000000, 0.000000000000000000, 1.000000000000000000 ) ) ;
#246 = CARTESIAN_POINT ( 'NONE',  ( 40.00000000000000711, -40.00000000000000000, 6.500000000000000000 ) ) ;
#247 = DESIGN_CONTEXT ( 'detailed design', #219, 'design' ) ;
#248 = LOCAL_TIME ( 16, 29, 18.00000000000000000, #102 ) ;
#249 = CARTESIAN_POINT ( 'NONE',  ( 37.50000000000009237, 37.49999999999989342, 6.500000000000000000 ) ) ;
#250 = ORIENTED_EDGE ( 'NONE', *, *, #69, .T. ) ;
#251 = DIRECTION ( 'NONE',  ( -0.000000000000000000, 0.000000000000000000, -1.000000000000000000 ) ) ;
#252 = LINE ( 'NONE', #55, #190 ) ;
#253 = EDGE_CURVE ( 'NONE', #277, #225, #121, .T. ) ;
#254 = MANIFOLD_SOLID_BREP ( 'C5', #4 ) ;
#255 = ORIENTED_EDGE ( 'NONE', *, *, #276, .F. ) ;
#256 = CARTESIAN_POINT ( 'NONE',  ( -34.99999999999999289, -40.00000000000000711, 6.500000000000000000 ) ) ;
#257 = CARTESIAN_POINT ( 'NONE',  ( -34.99999999999999289, -40.00000000000000711, 0.000000000000000000 ) ) ;
#258 = VERTEX_POINT ( 'NONE', #91 ) ;
#259 = EDGE_CURVE ( 'NONE', #367, #329, #205, .T. ) ;
#260 = EDGE_LOOP ( 'NONE', ( #160, #233, #161, #285 ) ) ;
#261 = DIRECTION ( 'NONE',  ( 8.673617379884042868E-17, -1.000000000000000000, 0.000000000000000000 ) ) ;
#262 = ORIENTED_EDGE ( 'NONE', *, *, #332, .F. ) ;
#263 = AXIS2_PLACEMENT_3D ( 'NONE', #133, #50, #134 ) ;
#264 =( NAMED_UNIT ( * ) PLANE_ANGLE_UNIT ( ) SI_UNIT ( $, .RADIAN. ) );
#265 = CARTESIAN_POINT ( 'NONE',  ( 34.99999999999997868, -40.00000000000000000, 6.500000000000000000 ) ) ;
#266 = CALENDAR_DATE ( 2023, 10, 8 ) ;
#267 = APPROVAL_PERSON_ORGANIZATION ( #327, #354, #348 ) ;
#268 = CARTESIAN_POINT ( 'NONE',  ( 0.000000000000000000, 0.000000000000000000, 0.000000000000000000 ) ) ;
#269 = EDGE_CURVE ( 'NONE', #273, #147, #85, .T. ) ;
#270 = VECTOR ( 'NONE', #15, 1000.000000000000000 ) ;
#271 = DIRECTION ( 'NONE',  ( 0.000000000000000000, -0.000000000000000000, 1.000000000000000000 ) ) ;
#272 = ORIENTED_EDGE ( 'NONE', *, *, #353, .T. ) ;
#273 = VERTEX_POINT ( 'NONE', #64 ) ;
#274 = EDGE_LOOP ( 'NONE', ( #336, #137, #99, #43, #142, #365, #185, #340 ) ) ;
#275 = ORIENTED_EDGE ( 'NONE', *, *, #193, .T. ) ;
#276 = EDGE_CURVE ( 'NONE', #225, #73, #88, .T. ) ;
#277 = VERTEX_POINT ( 'NONE', #317 ) ;
#278 = DIRECTION ( 'NONE',  ( 0.000000000000000000, -1.000000000000000000, 0.000000000000000000 ) ) ;
#279 = EDGE_LOOP ( 'NONE', ( #208, #9, #189, #272 ) ) ;
#280 = VECTOR ( 'NONE', #123, 1000.000000000000000 ) ;
#281 = ORIENTED_EDGE ( 'NONE', *, *, #357, .T. ) ;
#282 = CARTESIAN_POINT ( 'NONE',  ( 40.00000000000000711, -40.00000000000000000, 6.500000000000000000 ) ) ;
#283 = EDGE_LOOP ( 'NONE', ( #89, #122, #109, #316, #176, #275, #17, #47 ) ) ;
#284 = LINE ( 'NONE', #202, #287 ) ;
#285 = ORIENTED_EDGE ( 'NONE', *, *, #304, .F. ) ;
#286 = DIRECTION ( 'NONE',  ( 0.000000000000000000, 0.000000000000000000, -1.000000000000000000 ) ) ;
#287 = VECTOR ( 'NONE', #59, 1000.000000000000000 ) ;
#288 = EDGE_CURVE ( 'NONE', #367, #258, #32, .T. ) ;
#289 = PERSON_AND_ORGANIZATION ( #206, #323 ) ;
#290 = APPLICATION_PROTOCOL_DEFINITION ( 'international standard', 'config_control_design', 1994, #219 ) ;
#291 = EDGE_CURVE ( 'NONE', #196, #361, #284, .T. ) ;
#292 = VECTOR ( 'NONE', #74, 1000.000000000000000 ) ;
#293 = COORDINATED_UNIVERSAL_TIME_OFFSET ( 9, 0, .AHEAD. ) ;
#294 = SECURITY_CLASSIFICATION_LEVEL ( 'unclassified' ) ;
#295 = PRODUCT_DEFINITION_SHAPE ( 'NONE', 'NONE',  #230 ) ;
#296 = ORIENTED_EDGE ( 'NONE', *, *, #154, .T. ) ;
#297 = FACE_OUTER_BOUND ( 'NONE', #274, .T. ) ;
#298 = VECTOR ( 'NONE', #191, 1000.000000000000000 ) ;
#299 = LINE ( 'NONE', #249, #126 ) ;
#300 = CALENDAR_DATE ( 2023, 10, 8 ) ;
#301 = ORIENTED_EDGE ( 'NONE', *, *, #127, .T. ) ;
#302 = LINE ( 'NONE', #309, #341 ) ;
#303 = APPROVAL_STATUS ( 'not_yet_approved' ) ;
#304 = EDGE_CURVE ( 'NONE', #57, #273, #172, .T. ) ;
#305 = VECTOR ( 'NONE', #148, 1000.000000000000000 ) ;
#306 = CARTESIAN_POINT ( 'NONE',  ( -34.99999999999995026, 40.00000000000000711, 6.500000000000000000 ) ) ;
#307 = APPROVAL_ROLE ( '' ) ;
#308 = EDGE_LOOP ( 'NONE', ( #173, #220, #71, #132 ) ) ;
#309 = CARTESIAN_POINT ( 'NONE',  ( -39.99999999999997868, -40.00000000000000711, 0.000000000000000000 ) ) ;
#310 = PERSON_AND_ORGANIZATION_ROLE ( 'classification_officer' ) ;
#311 = ORIENTED_EDGE ( 'NONE', *, *, #186, .T. ) ;
#312 = PERSON_AND_ORGANIZATION ( #206, #323 ) ;
#313 = ORIENTED_EDGE ( 'NONE', *, *, #159, .T. ) ;
#314 = DIRECTION ( 'NONE',  ( 0.000000000000000000, 0.000000000000000000, -1.000000000000000000 ) ) ;
#315 = CC_DESIGN_APPROVAL ( #354, ( #103 ) ) ;
#316 = ORIENTED_EDGE ( 'NONE', *, *, #217, .T. ) ;
#317 = CARTESIAN_POINT ( 'NONE',  ( 34.99999999999997868, 40.00000000000001421, 6.500000000000000000 ) ) ;
#318 = EDGE_LOOP ( 'NONE', ( #255, #235, #1, #229 ) ) ;
#319 = DIRECTION ( 'NONE',  ( 0.7071067811865455743, -0.7071067811865493491, -0.000000000000000000 ) ) ;
#320 = ADVANCED_FACE ( 'NONE', ( #343 ), #232, .F. ) ;
#321 = LINE ( 'NONE', #257, #305 ) ;
#322 = FACE_OUTER_BOUND ( 'NONE', #279, .T. ) ;
#323 = ORGANIZATION ( 'UNSPECIFIED', 'UNSPECIFIED', '' ) ;
#324 = CARTESIAN_POINT ( 'NONE',  ( -37.49999999999983658, 37.50000000000014921, 6.500000000000000000 ) ) ;
#325 = APPROVAL_DATE_TIME ( #241, #22 ) ;
#326 = ADVANCED_FACE ( 'NONE', ( #27 ), #339, .F. ) ;
#327 = PERSON_AND_ORGANIZATION ( #206, #323 ) ;
#328 = PERSON_AND_ORGANIZATION ( #206, #323 ) ;
#329 = VERTEX_POINT ( 'NONE', #30 ) ;
#330 = VECTOR ( 'NONE', #209, 1000.000000000000000 ) ;
#331 = CARTESIAN_POINT ( 'NONE',  ( -34.99999999999995026, 40.00000000000000711, 6.500000000000000000 ) ) ;
#332 = EDGE_CURVE ( 'NONE', #57, #31, #179, .T. ) ;
#333 = CARTESIAN_POINT ( 'NONE',  ( 37.49999999999984368, -37.50000000000015632, 6.500000000000000000 ) ) ;
#334 = DIRECTION ( 'NONE',  ( 0.000000000000000000, 0.000000000000000000, -1.000000000000000000 ) ) ;
#335 = VECTOR ( 'NONE', #168, 1000.000000000000000 ) ;
#336 = ORIENTED_EDGE ( 'NONE', *, *, #177, .F. ) ;
#337 = DIRECTION ( 'NONE',  ( 0.000000000000000000, -1.000000000000000000, 0.000000000000000000 ) ) ;
#338 = PLANE ( 'NONE',  #215 ) ;
#339 = PLANE ( 'NONE',  #98 ) ;
#340 = ORIENTED_EDGE ( 'NONE', *, *, #269, .T. ) ;
#341 = VECTOR ( 'NONE', #82, 1000.000000000000000 ) ;
#342 = EDGE_LOOP ( 'NONE', ( #26, #250, #166, #313 ) ) ;
#343 = FACE_OUTER_BOUND ( 'NONE', #170, .T. ) ;
#344 = CC_DESIGN_PERSON_AND_ORGANIZATION_ASSIGNMENT ( #349, #70, ( #230 ) ) ;
#345 = FACE_OUTER_BOUND ( 'NONE', #151, .T. ) ;
#346 =( NAMED_UNIT ( * ) SI_UNIT ( $, .STERADIAN. ) SOLID_ANGLE_UNIT ( ) );
#347 = LINE ( 'NONE', #265, #112 ) ;
#348 = APPROVAL_ROLE ( '' ) ;
#349 = PERSON_AND_ORGANIZATION ( #206, #323 ) ;
#350 = PERSON_AND_ORGANIZATION ( #206, #323 ) ;
#351 = LOCAL_TIME ( 16, 29, 18.00000000000000000, #128 ) ;
#352 = DIRECTION ( 'NONE',  ( -1.000000000000000000, -8.673617379884037937E-17, 0.000000000000000000 ) ) ;
#353 = EDGE_CURVE ( 'NONE', #147, #49, #347, .T. ) ;
#354 = APPROVAL ( #94, 'UNSPECIFIED' ) ;
#355 = CARTESIAN_POINT ( 'NONE',  ( -39.99999999999997868, 35.00000000000001421, 6.500000000000000000 ) ) ;
#356 = LOCAL_TIME ( 16, 29, 18.00000000000000000, #360 ) ;
#357 = EDGE_CURVE ( 'NONE', #329, #31, #150, .T. ) ;
#358 = DIRECTION ( 'NONE',  ( -0.7071067811865455743, 0.7071067811865493491, -0.000000000000000000 ) ) ;
#359 = CARTESIAN_POINT ( 'NONE',  ( -34.99999999999999289, -40.00000000000000711, 6.500000000000000000 ) ) ;
#360 = COORDINATED_UNIVERSAL_TIME_OFFSET ( 9, 0, .AHEAD. ) ;
#361 = VERTEX_POINT ( 'NONE', #237 ) ;
#362 = VECTOR ( 'NONE', #25, 1000.000000000000000 ) ;
#363 = CARTESIAN_POINT ( 'NONE',  ( -39.99999999999997868, 35.00000000000001421, 0.000000000000000000 ) ) ;
#364 = APPLICATION_CONTEXT ( 'configuration controlled 3d designs of mechanical parts and assemblies' ) ;
#365 = ORIENTED_EDGE ( 'NONE', *, *, #259, .T. ) ;
#366 = CARTESIAN_POINT ( 'NONE',  ( 40.00000000000000711, -35.00000000000000711, 6.500000000000000000 ) ) ;
#367 = VERTEX_POINT ( 'NONE', #180 ) ;
#368 = EDGE_CURVE ( 'NONE', #361, #11, #321, .T. ) ;
#369 = LOCAL_TIME ( 16, 29, 18.00000000000000000, #293 ) ;
ENDSEC;
END-ISO-10303-21;
