ISO-10303-21;
HEADER;
FILE_DESCRIPTION (( 'STEP AP203' ),
    '1' );
FILE_NAME ('FE-460-3-F3.STEP',
    '2023-08-10T07:28:30',
    ( '' ),
    ( '' ),
    'SwSTEP 2.0',
    'SolidWorks 2021',
    '' );
FILE_SCHEMA (( 'CONFIG_CONTROL_DESIGN' ));
ENDSEC;

DATA;
#1 = DIRECTION ( 'NONE',  ( -1.000000000000000000, -3.304235192336774526E-16, 0.000000000000000000 ) ) ;
#2 = CARTESIAN_POINT ( 'NONE',  ( -36.99999999999999289, -42.00000000000000711, 0.000000000000000000 ) ) ;
#3 = APPROVAL ( #197, 'UNSPECIFIED' ) ;
#4 = DIRECTION ( 'NONE',  ( 1.000000000000000000, 8.260587980841940012E-17, 0.000000000000000000 ) ) ;
#5 = VECTOR ( 'NONE', #122, 1000.000000000000114 ) ;
#6 = DIRECTION ( 'NONE',  ( 0.7071067811865460184, -0.7071067811865489050, -0.000000000000000000 ) ) ;
#7 = DIRECTION ( 'NONE',  ( 0.7071067811865451302, -0.7071067811865500152, -0.000000000000000000 ) ) ;
#8 = CC_DESIGN_DATE_AND_TIME_ASSIGNMENT ( #338, #16, ( #99 ) ) ;
#9 = LINE ( 'NONE', #10, #52 ) ;
#10 = CARTESIAN_POINT ( 'NONE',  ( 36.99999999999999289, -42.00000000000000000, 6.500000000000000000 ) ) ;
#11 = DIRECTION ( 'NONE',  ( -0.7071067811865490160, -0.7071067811865461294, -0.000000000000000000 ) ) ;
#12 = ORIENTED_EDGE ( 'NONE', *, *, #241, .T. ) ;
#13 = EDGE_CURVE ( 'NONE', #287, #25, #337, .T. ) ;
#14 = ORIENTED_EDGE ( 'NONE', *, *, #366, .F. ) ;
#15 = AXIS2_PLACEMENT_3D ( 'NONE', #204, #347, #88 ) ;
#16 = DATE_TIME_ROLE ( 'creation_date' ) ;
#17 = VERTEX_POINT ( 'NONE', #108 ) ;
#18 = CARTESIAN_POINT ( 'NONE',  ( -41.99999999999997868, -36.99999999999998579, 0.000000000000000000 ) ) ;
#19 = PERSON ( 'UNSPECIFIED', 'UNSPECIFIED', 'UNSPECIFIED', ('UNSPECIFIED'), ('UNSPECIFIED'), ('UNSPECIFIED') ) ;
#20 = APPLICATION_CONTEXT ( 'configuration controlled 3d designs of mechanical parts and assemblies' ) ;
#21 = DATE_AND_TIME ( #49, #251 ) ;
#22 = FACE_OUTER_BOUND ( 'NONE', #82, .T. ) ;
#23 = APPROVAL_PERSON_ORGANIZATION ( #310, #110, #47 ) ;
#24 = DATE_AND_TIME ( #163, #260 ) ;
#25 = VERTEX_POINT ( 'NONE', #80 ) ;
#26 = ADVANCED_FACE ( 'NONE', ( #22 ), #111, .F. ) ;
#27 = EDGE_LOOP ( 'NONE', ( #14, #332, #50, #341 ) ) ;
#28 = PLANE ( 'NONE',  #170 ) ;
#29 = LINE ( 'NONE', #179, #369 ) ;
#30 = VECTOR ( 'NONE', #248, 1000.000000000000114 ) ;
#31 = ORIENTED_EDGE ( 'NONE', *, *, #91, .F. ) ;
#32 = PLANE ( 'NONE',  #367 ) ;
#33 = FACE_OUTER_BOUND ( 'NONE', #301, .T. ) ;
#34 = DIRECTION ( 'NONE',  ( -0.000000000000000000, 0.000000000000000000, -1.000000000000000000 ) ) ;
#35 = LINE ( 'NONE', #68, #5 ) ;
#36 = LINE ( 'NONE', #355, #281 ) ;
#37 = CARTESIAN_POINT ( 'NONE',  ( -41.99999999999997868, 37.00000000000004263, 0.000000000000000000 ) ) ;
#38 = VERTEX_POINT ( 'NONE', #18 ) ;
#39 = CC_DESIGN_APPROVAL ( #3, ( #99 ) ) ;
#40 = CARTESIAN_POINT ( 'NONE',  ( 36.99999999999997868, 42.00000000000002132, 6.500000000000000000 ) ) ;
#41 = PRODUCT_RELATED_PRODUCT_CATEGORY ( 'detail', '', ( #345 ) ) ;
#42 = CARTESIAN_POINT ( 'NONE',  ( 42.00000000000000711, -37.00000000000001421, 6.500000000000000000 ) ) ;
#43 = ORIENTED_EDGE ( 'NONE', *, *, #230, .T. ) ;
#44 = DESIGN_CONTEXT ( 'detailed design', #132, 'design' ) ;
#45 = VERTEX_POINT ( 'NONE', #131 ) ;
#46 = AXIS2_PLACEMENT_3D ( 'NONE', #322, #137, #266 ) ;
#47 = APPROVAL_ROLE ( '' ) ;
#48 = ORIENTED_EDGE ( 'NONE', *, *, #241, .F. ) ;
#49 = CALENDAR_DATE ( 2023, 10, 8 ) ;
#50 = ORIENTED_EDGE ( 'NONE', *, *, #207, .F. ) ;
#51 = ORIENTED_EDGE ( 'NONE', *, *, #297, .T. ) ;
#52 = VECTOR ( 'NONE', #69, 1000.000000000000000 ) ;
#53 = VERTEX_POINT ( 'NONE', #258 ) ;
#54 = CC_DESIGN_PERSON_AND_ORGANIZATION_ASSIGNMENT ( #359, #357, ( #226 ) ) ;
#55 = LINE ( 'NONE', #116, #320 ) ;
#56 = PLANE ( 'NONE',  #64 ) ;
#57 = PRODUCT_DEFINITION_FORMATION_WITH_SPECIFIED_SOURCE ( 'ANY', '', #345, .NOT_KNOWN. ) ;
#58 = ORGANIZATION ( 'UNSPECIFIED', 'UNSPECIFIED', '' ) ;
#59 = LINE ( 'NONE', #2, #311 ) ;
#60 = CARTESIAN_POINT ( 'NONE',  ( 42.00000000000000711, -42.00000000000000000, 0.000000000000000000 ) ) ;
#61 = VERTEX_POINT ( 'NONE', #166 ) ;
#62 = DIRECTION ( 'NONE',  ( -3.304235192336774526E-16, 1.000000000000000000, 0.000000000000000000 ) ) ;
#63 = ADVANCED_FACE ( 'NONE', ( #135 ), #196, .F. ) ;
#64 = AXIS2_PLACEMENT_3D ( 'NONE', #270, #343, #344 ) ;
#65 = DIRECTION ( 'NONE',  ( 0.000000000000000000, 0.000000000000000000, 1.000000000000000000 ) ) ;
#66 = ORIENTED_EDGE ( 'NONE', *, *, #207, .T. ) ;
#67 = VECTOR ( 'NONE', #62, 1000.000000000000000 ) ;
#68 = CARTESIAN_POINT ( 'NONE',  ( 39.50000000000008527, 39.49999999999990763, 6.500000000000000000 ) ) ;
#69 = DIRECTION ( 'NONE',  ( 0.000000000000000000, 0.000000000000000000, 1.000000000000000000 ) ) ;
#70 = CARTESIAN_POINT ( 'NONE',  ( 41.99999999999997868, 42.00000000000002132, 0.000000000000000000 ) ) ;
#71 = ADVANCED_FACE ( 'NONE', ( #200 ), #211, .F. ) ;
#72 = ORIENTED_EDGE ( 'NONE', *, *, #189, .T. ) ;
#73 = PERSON_AND_ORGANIZATION ( #19, #58 ) ;
#74 = ORIENTED_EDGE ( 'NONE', *, *, #230, .F. ) ;
#75 = MECHANICAL_CONTEXT ( 'NONE', #20, 'mechanical' ) ;
#76 = CARTESIAN_POINT ( 'NONE',  ( 41.99999999999997868, 42.00000000000002132, 6.500000000000000000 ) ) ;
#77 = VECTOR ( 'NONE', #96, 1000.000000000000114 ) ;
#78 = CC_DESIGN_APPROVAL ( #265, ( #57 ) ) ;
#79 = APPROVAL_ROLE ( '' ) ;
#80 = CARTESIAN_POINT ( 'NONE',  ( -36.99999999999997868, 42.00000000000001421, 6.500000000000000000 ) ) ;
#81 = SHAPE_DEFINITION_REPRESENTATION ( #353, #177 ) ;
#82 = EDGE_LOOP ( 'NONE', ( #153, #278, #157, #290 ) ) ;
#83 = DIRECTION ( 'NONE',  ( 1.000000000000000000, 8.260587980841942477E-17, 0.000000000000000000 ) ) ;
#84 = AXIS2_PLACEMENT_3D ( 'NONE', #133, #109, #83 ) ;
#85 = FACE_OUTER_BOUND ( 'NONE', #261, .T. ) ;
#86 = DIRECTION ( 'NONE',  ( 0.000000000000000000, -0.000000000000000000, 1.000000000000000000 ) ) ;
#87 = EDGE_CURVE ( 'NONE', #206, #316, #321, .T. ) ;
#88 = DIRECTION ( 'NONE',  ( -1.000000000000000000, -8.260587980841941245E-17, 0.000000000000000000 ) ) ;
#89 = DIRECTION ( 'NONE',  ( 0.000000000000000000, 0.000000000000000000, -1.000000000000000000 ) ) ;
#90 = DIRECTION ( 'NONE',  ( 0.000000000000000000, -1.000000000000000000, 0.000000000000000000 ) ) ;
#91 = EDGE_CURVE ( 'NONE', #17, #316, #55, .T. ) ;
#92 = EDGE_CURVE ( 'NONE', #339, #45, #113, .T. ) ;
#93 = CARTESIAN_POINT ( 'NONE',  ( 42.00000000000000711, -37.00000000000001421, 0.000000000000000000 ) ) ;
#94 = CC_DESIGN_PERSON_AND_ORGANIZATION_ASSIGNMENT ( #130, #259, ( #345 ) ) ;
#95 = AXIS2_PLACEMENT_3D ( 'NONE', #268, #1, #115 ) ;
#96 = DIRECTION ( 'NONE',  ( 0.7071067811865495711, 0.7071067811865455743, -0.000000000000000000 ) ) ;
#97 = ORIENTED_EDGE ( 'NONE', *, *, #189, .F. ) ;
#98 = DIRECTION ( 'NONE',  ( 0.000000000000000000, 0.000000000000000000, 1.000000000000000000 ) ) ;
#99 = PRODUCT_DEFINITION ( 'UNKNOWN', '', #57, #44 ) ;
#100 = FACE_OUTER_BOUND ( 'NONE', #175, .T. ) ;
#101 = ORIENTED_EDGE ( 'NONE', *, *, #154, .F. ) ;
#102 = PERSON_AND_ORGANIZATION ( #19, #58 ) ;
#103 = ADVANCED_FACE ( 'NONE', ( #85 ), #326, .F. ) ;
#104 = PERSON_AND_ORGANIZATION ( #19, #58 ) ;
#105 = ORIENTED_EDGE ( 'NONE', *, *, #237, .F. ) ;
#106 = ORIENTED_EDGE ( 'NONE', *, *, #92, .T. ) ;
#107 = APPROVAL_DATE_TIME ( #21, #110 ) ;
#108 = CARTESIAN_POINT ( 'NONE',  ( 41.99999999999997868, 37.00000000000000000, 0.000000000000000000 ) ) ;
#109 = DIRECTION ( 'NONE',  ( 8.260587980841942477E-17, -1.000000000000000000, 0.000000000000000000 ) ) ;
#110 = APPROVAL ( #165, 'UNSPECIFIED' ) ;
#111 = PLANE ( 'NONE',  #203 ) ;
#112 = VECTOR ( 'NONE', #215, 1000.000000000000000 ) ;
#113 = LINE ( 'NONE', #296, #299 ) ;
#114 = EDGE_CURVE ( 'NONE', #220, #61, #210, .T. ) ;
#115 = DIRECTION ( 'NONE',  ( 3.304235192336774526E-16, -1.000000000000000000, 0.000000000000000000 ) ) ;
#116 = CARTESIAN_POINT ( 'NONE',  ( 41.99999999999997868, 37.00000000000000000, 6.500000000000000000 ) ) ;
#117 = PLANE ( 'NONE',  #159 ) ;
#118 = DIRECTION ( 'NONE',  ( -0.7071067811865493491, -0.7071067811865455743, -0.000000000000000000 ) ) ;
#119 = ORIENTED_EDGE ( 'NONE', *, *, #114, .F. ) ;
#120 = ADVANCED_FACE ( 'NONE', ( #234 ), #56, .F. ) ;
#121 = CARTESIAN_POINT ( 'NONE',  ( -36.99999999999999289, -42.00000000000000711, 6.500000000000000000 ) ) ;
#122 = DIRECTION ( 'NONE',  ( -0.7071067811865460184, 0.7071067811865489050, -0.000000000000000000 ) ) ;
#123 = LINE ( 'NONE', #121, #193 ) ;
#124 = DIRECTION ( 'NONE',  ( 0.000000000000000000, 0.000000000000000000, -1.000000000000000000 ) ) ;
#125 = ORIENTED_EDGE ( 'NONE', *, *, #272, .T. ) ;
#126 = CALENDAR_DATE ( 2023, 10, 8 ) ;
#127 = VECTOR ( 'NONE', #346, 1000.000000000000000 ) ;
#128 = PERSON_AND_ORGANIZATION_ROLE ( 'creator' ) ;
#129 = VERTEX_POINT ( 'NONE', #208 ) ;
#130 = PERSON_AND_ORGANIZATION ( #19, #58 ) ;
#131 = CARTESIAN_POINT ( 'NONE',  ( 36.99999999999999289, -42.00000000000000000, 6.500000000000000000 ) ) ;
#132 = APPLICATION_CONTEXT ( 'configuration controlled 3d designs of mechanical parts and assemblies' ) ;
#133 = CARTESIAN_POINT ( 'NONE',  ( 41.99999999999997868, 42.00000000000002132, 6.500000000000000000 ) ) ;
#134 = APPROVAL_PERSON_ORGANIZATION ( #104, #265, #257 ) ;
#135 = FACE_OUTER_BOUND ( 'NONE', #216, .T. ) ;
#136 = ORIENTED_EDGE ( 'NONE', *, *, #202, .T. ) ;
#137 = DIRECTION ( 'NONE',  ( -0.7071067811865455743, 0.7071067811865495711, 0.000000000000000000 ) ) ;
#138 = EDGE_CURVE ( 'NONE', #255, #38, #59, .T. ) ;
#139 = VECTOR ( 'NONE', #98, 1000.000000000000000 ) ;
#140 = FACE_OUTER_BOUND ( 'NONE', #229, .T. ) ;
#141 = ORIENTED_EDGE ( 'NONE', *, *, #13, .F. ) ;
#142 = DIRECTION ( 'NONE',  ( 0.000000000000000000, 0.000000000000000000, 1.000000000000000000 ) ) ;
#143 = ADVANCED_FACE ( 'NONE', ( #324 ), #28, .T. ) ;
#144 = LINE ( 'NONE', #178, #127 ) ;
#145 =( GEOMETRIC_REPRESENTATION_CONTEXT ( 3 ) GLOBAL_UNCERTAINTY_ASSIGNED_CONTEXT ( ( #280 ) ) GLOBAL_UNIT_ASSIGNED_CONTEXT ( ( #348, #328, #305 ) ) REPRESENTATION_CONTEXT ( 'NONE', 'WORKASPACE' ) );
#146 = LINE ( 'NONE', #273, #350 ) ;
#147 = EDGE_LOOP ( 'NONE', ( #74, #235, #362, #66, #253, #72, #283, #169 ) ) ;
#148 = DIRECTION ( 'NONE',  ( 0.000000000000000000, 0.000000000000000000, -1.000000000000000000 ) ) ;
#149 = DIRECTION ( 'NONE',  ( 0.000000000000000000, 0.000000000000000000, -1.000000000000000000 ) ) ;
#150 = EDGE_CURVE ( 'NONE', #220, #17, #176, .T. ) ;
#151 = CARTESIAN_POINT ( 'NONE',  ( -36.99999999999999289, -42.00000000000000711, 0.000000000000000000 ) ) ;
#152 = LINE ( 'NONE', #275, #139 ) ;
#153 = ORIENTED_EDGE ( 'NONE', *, *, #256, .F. ) ;
#154 = EDGE_CURVE ( 'NONE', #304, #315, #29, .T. ) ;
#155 = ADVANCED_FACE ( 'NONE', ( #140 ), #181, .F. ) ;
#156 = CARTESIAN_POINT ( 'NONE',  ( -41.99999999999997868, 37.00000000000004263, 6.500000000000000000 ) ) ;
#157 = ORIENTED_EDGE ( 'NONE', *, *, #138, .F. ) ;
#158 = CARTESIAN_POINT ( 'NONE',  ( 0.000000000000000000, 0.000000000000000000, 0.000000000000000000 ) ) ;
#159 = AXIS2_PLACEMENT_3D ( 'NONE', #298, #239, #34 ) ;
#160 = EDGE_CURVE ( 'NONE', #287, #264, #144, .T. ) ;
#161 = ORIENTED_EDGE ( 'NONE', *, *, #91, .T. ) ;
#162 = VECTOR ( 'NONE', #312, 1000.000000000000000 ) ;
#163 = CALENDAR_DATE ( 2023, 10, 8 ) ;
#164 = DIRECTION ( 'NONE',  ( 0.7071067811865500152, 0.7071067811865451302, 0.000000000000000000 ) ) ;
#165 = APPROVAL_STATUS ( 'not_yet_approved' ) ;
#166 = CARTESIAN_POINT ( 'NONE',  ( 36.99999999999999289, -42.00000000000000000, 0.000000000000000000 ) ) ;
#167 = ADVANCED_FACE ( 'NONE', ( #236 ), #32, .F. ) ;
#168 = DATE_TIME_ROLE ( 'classification_date' ) ;
#169 = ORIENTED_EDGE ( 'NONE', *, *, #114, .T. ) ;
#170 = AXIS2_PLACEMENT_3D ( 'NONE', #174, #86, #205 ) ;
#171 = PERSON_AND_ORGANIZATION ( #19, #58 ) ;
#172 = ORIENTED_EDGE ( 'NONE', *, *, #150, .T. ) ;
#173 = ADVANCED_FACE ( 'NONE', ( #33 ), #117, .F. ) ;
#174 = CARTESIAN_POINT ( 'NONE',  ( 0.000000000000000000, 0.000000000000000000, 6.500000000000000000 ) ) ;
#175 = EDGE_LOOP ( 'NONE', ( #194, #31, #97, #365 ) ) ;
#176 = LINE ( 'NONE', #60, #67 ) ;
#177 = ADVANCED_BREP_SHAPE_REPRESENTATION ( 'FE-460-3-F3', ( #313, #218 ), #145 ) ;
#178 = CARTESIAN_POINT ( 'NONE',  ( 36.99999999999997868, 42.00000000000002132, 6.500000000000000000 ) ) ;
#179 = CARTESIAN_POINT ( 'NONE',  ( -41.99999999999997868, 42.00000000000001421, 6.500000000000000000 ) ) ;
#180 = CC_DESIGN_PERSON_AND_ORGANIZATION_ASSIGNMENT ( #171, #254, ( #57 ) ) ;
#181 = PLANE ( 'NONE',  #95 ) ;
#182 = CARTESIAN_POINT ( 'NONE',  ( 36.99999999999997868, 42.00000000000002132, 6.500000000000000000 ) ) ;
#183 = VECTOR ( 'NONE', #292, 1000.000000000000000 ) ;
#184 = CARTESIAN_POINT ( 'NONE',  ( 36.99999999999997868, 42.00000000000002132, 0.000000000000000000 ) ) ;
#185 = CARTESIAN_POINT ( 'NONE',  ( -41.99999999999997868, -36.99999999999998579, 6.500000000000000000 ) ) ;
#186 = DIRECTION ( 'NONE',  ( 1.000000000000000000, 8.260587980841940012E-17, 0.000000000000000000 ) ) ;
#187 = LINE ( 'NONE', #349, #213 ) ;
#188 = ORIENTED_EDGE ( 'NONE', *, *, #237, .T. ) ;
#189 = EDGE_CURVE ( 'NONE', #264, #17, #146, .T. ) ;
#190 = DIRECTION ( 'NONE',  ( 1.000000000000000000, 0.000000000000000000, 0.000000000000000000 ) ) ;
#191 = ORIENTED_EDGE ( 'NONE', *, *, #13, .T. ) ;
#192 = COORDINATED_UNIVERSAL_TIME_OFFSET ( 9, 0, .AHEAD. ) ;
#193 = VECTOR ( 'NONE', #124, 1000.000000000000000 ) ;
#194 = ORIENTED_EDGE ( 'NONE', *, *, #212, .F. ) ;
#195 = COORDINATED_UNIVERSAL_TIME_OFFSET ( 9, 0, .AHEAD. ) ;
#196 = PLANE ( 'NONE',  #84 ) ;
#197 = APPROVAL_STATUS ( 'not_yet_approved' ) ;
#198 = CARTESIAN_POINT ( 'NONE',  ( -36.99999999999999289, -42.00000000000000711, 6.500000000000000000 ) ) ;
#199 = DATE_AND_TIME ( #126, #318 ) ;
#200 = FACE_OUTER_BOUND ( 'NONE', #360, .T. ) ;
#201 = CC_DESIGN_APPROVAL ( #110, ( #226 ) ) ;
#202 = EDGE_CURVE ( 'NONE', #129, #38, #231, .T. ) ;
#203 = AXIS2_PLACEMENT_3D ( 'NONE', #198, #164, #285 ) ;
#204 = CARTESIAN_POINT ( 'NONE',  ( -41.99999999999997868, -42.00000000000000711, 6.500000000000000000 ) ) ;
#205 = DIRECTION ( 'NONE',  ( 1.000000000000000000, 0.000000000000000000, -0.000000000000000000 ) ) ;
#206 = VERTEX_POINT ( 'NONE', #331 ) ;
#207 = EDGE_CURVE ( 'NONE', #129, #53, #300, .T. ) ;
#208 = CARTESIAN_POINT ( 'NONE',  ( -41.99999999999997868, 37.00000000000004263, 0.000000000000000000 ) ) ;
#209 = LOCAL_TIME ( 16, 28, 30.00000000000000000, #195 ) ;
#210 = LINE ( 'NONE', #295, #232 ) ;
#211 = PLANE ( 'NONE',  #46 ) ;
#212 = EDGE_CURVE ( 'NONE', #316, #287, #35, .T. ) ;
#213 = VECTOR ( 'NONE', #65, 1000.000000000000000 ) ;
#214 = CARTESIAN_POINT ( 'NONE',  ( 41.99999999999997868, 37.00000000000000000, 6.500000000000000000 ) ) ;
#215 = DIRECTION ( 'NONE',  ( 0.000000000000000000, -1.000000000000000000, 0.000000000000000000 ) ) ;
#216 = EDGE_LOOP ( 'NONE', ( #228, #333, #141, #250 ) ) ;
#217 = CARTESIAN_POINT ( 'NONE',  ( -41.99999999999997868, 37.00000000000004263, 6.500000000000000000 ) ) ;
#218 = AXIS2_PLACEMENT_3D ( 'NONE', #158, #227, #190 ) ;
#219 = VECTOR ( 'NONE', #149, 1000.000000000000000 ) ;
#220 = VERTEX_POINT ( 'NONE', #93 ) ;
#221 = SECURITY_CLASSIFICATION_LEVEL ( 'unclassified' ) ;
#222 = ORIENTED_EDGE ( 'NONE', *, *, #154, .T. ) ;
#223 = COORDINATED_UNIVERSAL_TIME_OFFSET ( 9, 0, .AHEAD. ) ;
#224 = LOCAL_TIME ( 16, 28, 30.00000000000000000, #307 ) ;
#225 = ORIENTED_EDGE ( 'NONE', *, *, #87, .T. ) ;
#226 = SECURITY_CLASSIFICATION ( '', '', #221 ) ;
#227 = DIRECTION ( 'NONE',  ( 0.000000000000000000, 0.000000000000000000, 1.000000000000000000 ) ) ;
#228 = ORIENTED_EDGE ( 'NONE', *, *, #351, .T. ) ;
#229 = EDGE_LOOP ( 'NONE', ( #358, #188, #172, #161 ) ) ;
#230 = EDGE_CURVE ( 'NONE', #255, #61, #240, .T. ) ;
#231 = LINE ( 'NONE', #342, #112 ) ;
#232 = VECTOR ( 'NONE', #327, 1000.000000000000114 ) ;
#233 = EDGE_CURVE ( 'NONE', #53, #25, #187, .T. ) ;
#234 = FACE_OUTER_BOUND ( 'NONE', #147, .T. ) ;
#235 = ORIENTED_EDGE ( 'NONE', *, *, #138, .T. ) ;
#236 = FACE_OUTER_BOUND ( 'NONE', #27, .T. ) ;
#237 = EDGE_CURVE ( 'NONE', #206, #220, #354, .T. ) ;
#238 = DIRECTION ( 'NONE',  ( 0.7071067811865456854, -0.7071067811865494601, 0.000000000000000000 ) ) ;
#239 = DIRECTION ( 'NONE',  ( 1.000000000000000000, 0.000000000000000000, -0.000000000000000000 ) ) ;
#240 = LINE ( 'NONE', #277, #245 ) ;
#241 = EDGE_CURVE ( 'NONE', #61, #45, #9, .T. ) ;
#242 = CARTESIAN_POINT ( 'NONE',  ( 39.49999999999988631, -39.50000000000011369, 6.500000000000000000 ) ) ;
#243 = CLOSED_SHELL ( 'NONE', ( #103, #155, #63, #173, #143, #120, #26, #71, #167, #274 ) ) ;
#244 = LINE ( 'NONE', #70, #271 ) ;
#245 = VECTOR ( 'NONE', #186, 1000.000000000000000 ) ;
#246 = ORIENTED_EDGE ( 'NONE', *, *, #92, .F. ) ;
#247 = PLANE ( 'NONE',  #309 ) ;
#248 = DIRECTION ( 'NONE',  ( 0.7071067811865493491, 0.7071067811865455743, -0.000000000000000000 ) ) ;
#249 = CC_DESIGN_PERSON_AND_ORGANIZATION_ASSIGNMENT ( #262, #128, ( #57 ) ) ;
#250 = ORIENTED_EDGE ( 'NONE', *, *, #160, .T. ) ;
#251 = LOCAL_TIME ( 16, 28, 30.00000000000000000, #284 ) ;
#252 = CALENDAR_DATE ( 2023, 10, 8 ) ;
#253 = ORIENTED_EDGE ( 'NONE', *, *, #351, .F. ) ;
#254 = PERSON_AND_ORGANIZATION_ROLE ( 'design_supplier' ) ;
#255 = VERTEX_POINT ( 'NONE', #151 ) ;
#256 = EDGE_CURVE ( 'NONE', #315, #339, #36, .T. ) ;
#257 = APPROVAL_ROLE ( '' ) ;
#258 = CARTESIAN_POINT ( 'NONE',  ( -36.99999999999997868, 42.00000000000001421, 0.000000000000000000 ) ) ;
#259 = PERSON_AND_ORGANIZATION_ROLE ( 'design_owner' ) ;
#260 = LOCAL_TIME ( 16, 28, 30.00000000000000000, #192 ) ;
#261 = EDGE_LOOP ( 'NONE', ( #246, #263, #43, #12 ) ) ;
#262 = PERSON_AND_ORGANIZATION ( #19, #58 ) ;
#263 = ORIENTED_EDGE ( 'NONE', *, *, #306, .T. ) ;
#264 = VERTEX_POINT ( 'NONE', #184 ) ;
#265 = APPROVAL ( #286, 'UNSPECIFIED' ) ;
#266 = DIRECTION ( 'NONE',  ( 0.000000000000000000, 0.000000000000000000, -1.000000000000000000 ) ) ;
#267 = VECTOR ( 'NONE', #279, 1000.000000000000000 ) ;
#268 = CARTESIAN_POINT ( 'NONE',  ( 42.00000000000000711, -42.00000000000000000, 6.500000000000000000 ) ) ;
#269 = CARTESIAN_POINT ( 'NONE',  ( -41.99999999999997868, 37.00000000000004263, 6.500000000000000000 ) ) ;
#270 = CARTESIAN_POINT ( 'NONE',  ( 0.000000000000000000, 0.000000000000000000, 0.000000000000000000 ) ) ;
#271 = VECTOR ( 'NONE', #303, 1000.000000000000000 ) ;
#272 = EDGE_CURVE ( 'NONE', #304, #129, #330, .T. ) ;
#273 = CARTESIAN_POINT ( 'NONE',  ( 36.99999999999997868, 42.00000000000002132, 0.000000000000000000 ) ) ;
#274 = ADVANCED_FACE ( 'NONE', ( #100 ), #247, .F. ) ;
#275 = CARTESIAN_POINT ( 'NONE',  ( -41.99999999999997868, -36.99999999999998579, 6.500000000000000000 ) ) ;
#276 = LINE ( 'NONE', #242, #77 ) ;
#277 = CARTESIAN_POINT ( 'NONE',  ( -41.99999999999997868, -42.00000000000000711, 0.000000000000000000 ) ) ;
#278 = ORIENTED_EDGE ( 'NONE', *, *, #297, .F. ) ;
#279 = DIRECTION ( 'NONE',  ( 0.000000000000000000, 0.000000000000000000, -1.000000000000000000 ) ) ;
#280 = UNCERTAINTY_MEASURE_WITH_UNIT (LENGTH_MEASURE( 1.000000000000000082E-05 ), #348, 'distance_accuracy_value', 'NONE');
#281 = VECTOR ( 'NONE', #7, 1000.000000000000114 ) ;
#282 = APPLICATION_PROTOCOL_DEFINITION ( 'international standard', 'config_control_design', 1994, #132 ) ;
#283 = ORIENTED_EDGE ( 'NONE', *, *, #150, .F. ) ;
#284 = COORDINATED_UNIVERSAL_TIME_OFFSET ( 9, 0, .AHEAD. ) ;
#285 = DIRECTION ( 'NONE',  ( 0.000000000000000000, 0.000000000000000000, -1.000000000000000000 ) ) ;
#286 = APPROVAL_STATUS ( 'not_yet_approved' ) ;
#287 = VERTEX_POINT ( 'NONE', #40 ) ;
#288 = APPROVAL_DATE_TIME ( #361, #3 ) ;
#289 = CC_DESIGN_SECURITY_CLASSIFICATION ( #226, ( #57 ) ) ;
#290 = ORIENTED_EDGE ( 'NONE', *, *, #306, .F. ) ;
#291 = ORIENTED_EDGE ( 'NONE', *, *, #256, .T. ) ;
#292 = DIRECTION ( 'NONE',  ( -3.304235192336774526E-16, 1.000000000000000000, 0.000000000000000000 ) ) ;
#293 = DIRECTION ( 'NONE',  ( -0.7071067811865451302, 0.7071067811865500152, 0.000000000000000000 ) ) ;
#294 = VECTOR ( 'NONE', #118, 1000.000000000000114 ) ;
#295 = CARTESIAN_POINT ( 'NONE',  ( 42.00000000000000711, -37.00000000000001421, 0.000000000000000000 ) ) ;
#296 = CARTESIAN_POINT ( 'NONE',  ( -41.99999999999997868, -42.00000000000000711, 6.500000000000000000 ) ) ;
#297 = EDGE_CURVE ( 'NONE', #38, #315, #152, .T. ) ;
#298 = CARTESIAN_POINT ( 'NONE',  ( -41.99999999999997868, 42.00000000000001421, 6.500000000000000000 ) ) ;
#299 = VECTOR ( 'NONE', #4, 1000.000000000000000 ) ;
#300 = LINE ( 'NONE', #37, #30 ) ;
#301 = EDGE_LOOP ( 'NONE', ( #136, #51, #101, #125 ) ) ;
#302 = CARTESIAN_POINT ( 'NONE',  ( -39.49999999999989342, 39.50000000000011369, 6.500000000000000000 ) ) ;
#303 = DIRECTION ( 'NONE',  ( -1.000000000000000000, -8.260587980841942477E-17, 0.000000000000000000 ) ) ;
#304 = VERTEX_POINT ( 'NONE', #217 ) ;
#305 =( NAMED_UNIT ( * ) SI_UNIT ( $, .STERADIAN. ) SOLID_ANGLE_UNIT ( ) );
#306 = EDGE_CURVE ( 'NONE', #339, #255, #123, .T. ) ;
#307 = COORDINATED_UNIVERSAL_TIME_OFFSET ( 9, 0, .AHEAD. ) ;
#308 = ORIENTED_EDGE ( 'NONE', *, *, #212, .T. ) ;
#309 = AXIS2_PLACEMENT_3D ( 'NONE', #182, #11, #148 ) ;
#310 = PERSON_AND_ORGANIZATION ( #19, #58 ) ;
#311 = VECTOR ( 'NONE', #293, 1000.000000000000114 ) ;
#312 = DIRECTION ( 'NONE',  ( -1.000000000000000000, -8.260587980841942477E-17, 0.000000000000000000 ) ) ;
#313 = MANIFOLD_SOLID_BREP ( 'C5', #243 ) ;
#314 = PERSON_AND_ORGANIZATION_ROLE ( 'creator' ) ;
#315 = VERTEX_POINT ( 'NONE', #185 ) ;
#316 = VERTEX_POINT ( 'NONE', #214 ) ;
#317 = EDGE_CURVE ( 'NONE', #45, #206, #276, .T. ) ;
#318 = LOCAL_TIME ( 16, 28, 30.00000000000000000, #223 ) ;
#319 = EDGE_LOOP ( 'NONE', ( #222, #291, #106, #364, #225, #308, #191, #336 ) ) ;
#320 = VECTOR ( 'NONE', #142, 1000.000000000000000 ) ;
#321 = LINE ( 'NONE', #368, #183 ) ;
#322 = CARTESIAN_POINT ( 'NONE',  ( 42.00000000000000711, -37.00000000000001421, 6.500000000000000000 ) ) ;
#323 = ORIENTED_EDGE ( 'NONE', *, *, #317, .F. ) ;
#324 = FACE_OUTER_BOUND ( 'NONE', #319, .T. ) ;
#325 = APPROVAL_PERSON_ORGANIZATION ( #102, #3, #79 ) ;
#326 = PLANE ( 'NONE',  #15 ) ;
#327 = DIRECTION ( 'NONE',  ( -0.7071067811865495711, -0.7071067811865455743, -0.000000000000000000 ) ) ;
#328 =( NAMED_UNIT ( * ) PLANE_ANGLE_UNIT ( ) SI_UNIT ( $, .RADIAN. ) );
#329 = CARTESIAN_POINT ( 'NONE',  ( -36.99999999999999289, -42.00000000000000711, 6.500000000000000000 ) ) ;
#330 = LINE ( 'NONE', #156, #267 ) ;
#331 = CARTESIAN_POINT ( 'NONE',  ( 42.00000000000000711, -37.00000000000001421, 6.500000000000000000 ) ) ;
#332 = ORIENTED_EDGE ( 'NONE', *, *, #233, .F. ) ;
#333 = ORIENTED_EDGE ( 'NONE', *, *, #233, .T. ) ;
#334 = CC_DESIGN_PERSON_AND_ORGANIZATION_ASSIGNMENT ( #73, #314, ( #99 ) ) ;
#335 = APPLICATION_PROTOCOL_DEFINITION ( 'international standard', 'config_control_design', 1994, #20 ) ;
#336 = ORIENTED_EDGE ( 'NONE', *, *, #366, .T. ) ;
#337 = LINE ( 'NONE', #76, #162 ) ;
#338 = DATE_AND_TIME ( #252, #224 ) ;
#339 = VERTEX_POINT ( 'NONE', #329 ) ;
#340 = CC_DESIGN_DATE_AND_TIME_ASSIGNMENT ( #24, #168, ( #226 ) ) ;
#341 = ORIENTED_EDGE ( 'NONE', *, *, #272, .F. ) ;
#342 = CARTESIAN_POINT ( 'NONE',  ( -41.99999999999997868, 42.00000000000001421, 0.000000000000000000 ) ) ;
#343 = DIRECTION ( 'NONE',  ( 0.000000000000000000, -0.000000000000000000, 1.000000000000000000 ) ) ;
#344 = DIRECTION ( 'NONE',  ( 1.000000000000000000, 0.000000000000000000, -0.000000000000000000 ) ) ;
#345 = PRODUCT ( 'FE-460-3-F3', 'FE-460-3-F3', '', ( #75 ) ) ;
#346 = DIRECTION ( 'NONE',  ( 0.000000000000000000, 0.000000000000000000, -1.000000000000000000 ) ) ;
#347 = DIRECTION ( 'NONE',  ( -8.260587980841941245E-17, 1.000000000000000000, 0.000000000000000000 ) ) ;
#348 =( LENGTH_UNIT ( ) NAMED_UNIT ( * ) SI_UNIT ( .MILLI., .METRE. ) );
#349 = CARTESIAN_POINT ( 'NONE',  ( -36.99999999999997868, 42.00000000000001421, 6.500000000000000000 ) ) ;
#350 = VECTOR ( 'NONE', #6, 1000.000000000000114 ) ;
#351 = EDGE_CURVE ( 'NONE', #264, #53, #244, .T. ) ;
#352 = LINE ( 'NONE', #302, #294 ) ;
#353 = PRODUCT_DEFINITION_SHAPE ( 'NONE', 'NONE',  #99 ) ;
#354 = LINE ( 'NONE', #42, #219 ) ;
#355 = CARTESIAN_POINT ( 'NONE',  ( -39.50000000000012790, -39.49999999999985079, 6.500000000000000000 ) ) ;
#356 = APPROVAL_DATE_TIME ( #199, #265 ) ;
#357 = PERSON_AND_ORGANIZATION_ROLE ( 'classification_officer' ) ;
#358 = ORIENTED_EDGE ( 'NONE', *, *, #87, .F. ) ;
#359 = PERSON_AND_ORGANIZATION ( #19, #58 ) ;
#360 = EDGE_LOOP ( 'NONE', ( #323, #48, #119, #105 ) ) ;
#361 = DATE_AND_TIME ( #363, #209 ) ;
#362 = ORIENTED_EDGE ( 'NONE', *, *, #202, .F. ) ;
#363 = CALENDAR_DATE ( 2023, 10, 8 ) ;
#364 = ORIENTED_EDGE ( 'NONE', *, *, #317, .T. ) ;
#365 = ORIENTED_EDGE ( 'NONE', *, *, #160, .F. ) ;
#366 = EDGE_CURVE ( 'NONE', #25, #304, #352, .T. ) ;
#367 = AXIS2_PLACEMENT_3D ( 'NONE', #269, #238, #89 ) ;
#368 = CARTESIAN_POINT ( 'NONE',  ( 42.00000000000000711, -42.00000000000000000, 6.500000000000000000 ) ) ;
#369 = VECTOR ( 'NONE', #90, 1000.000000000000000 ) ;
ENDSEC;
END-ISO-10303-21;
