ISO-10303-21;
HEADER;
FILE_DESCRIPTION (( 'STEP AP203' ),
    '1' );
FILE_NAME ('FE-460-3-F1.STEP',
    '2023-08-10T07:27:07',
    ( '' ),
    ( '' ),
    'SwSTEP 2.0',
    'SolidWorks 2021',
    '' );
FILE_SCHEMA (( 'CONFIG_CONTROL_DESIGN' ));
ENDSEC;

DATA;
#1 = CARTESIAN_POINT ( 'NONE',  ( -41.99999999999997868, 42.00000000000001421, 5.000000000000000000 ) ) ;
#2 = CARTESIAN_POINT ( 'NONE',  ( -41.99999999999997868, 42.00000000000001421, 0.000000000000000000 ) ) ;
#3 = CARTESIAN_POINT ( 'NONE',  ( 42.00000000000000711, -42.00000000000000000, 0.000000000000000000 ) ) ;
#4 = VECTOR ( 'NONE', #207, 1000.000000000000000 ) ;
#5 = CC_DESIGN_DATE_AND_TIME_ASSIGNMENT ( #156, #138, ( #81 ) ) ;
#6 = CC_DESIGN_APPROVAL ( #76, ( #148 ) ) ;
#7 = CARTESIAN_POINT ( 'NONE',  ( 41.99999999999997868, 42.00000000000002132, 0.000000000000000000 ) ) ;
#8 = DIRECTION ( 'NONE',  ( 1.000000000000000000, 8.260587980841940012E-17, 0.000000000000000000 ) ) ;
#9 = CC_DESIGN_PERSON_AND_ORGANIZATION_ASSIGNMENT ( #229, #197, ( #117 ) ) ;
#10 = APPROVAL_ROLE ( '' ) ;
#11 = PERSON_AND_ORGANIZATION ( #58, #69 ) ;
#12 = PERSON_AND_ORGANIZATION ( #58, #69 ) ;
#13 = ORIENTED_EDGE ( 'NONE', *, *, #24, .T. ) ;
#14 = APPROVAL_PERSON_ORGANIZATION ( #12, #40, #10 ) ;
#15 = CARTESIAN_POINT ( 'NONE',  ( 42.00000000000000711, -42.00000000000000000, 0.000000000000000000 ) ) ;
#16 = EDGE_CURVE ( 'NONE', #35, #67, #165, .T. ) ;
#17 = VERTEX_POINT ( 'NONE', #15 ) ;
#18 = ORIENTED_EDGE ( 'NONE', *, *, #223, .F. ) ;
#19 = CARTESIAN_POINT ( 'NONE',  ( -41.99999999999997868, -42.00000000000000711, 0.000000000000000000 ) ) ;
#20 = CARTESIAN_POINT ( 'NONE',  ( -41.99999999999997868, -42.00000000000000711, 5.000000000000000000 ) ) ;
#21 = CARTESIAN_POINT ( 'NONE',  ( 42.00000000000000711, -42.00000000000000000, 5.000000000000000000 ) ) ;
#22 = PRODUCT ( 'FE-460-3-F1', 'FE-460-3-F1', '', ( #155 ) ) ;
#23 = DIRECTION ( 'NONE',  ( -0.000000000000000000, -0.000000000000000000, -1.000000000000000000 ) ) ;
#24 = EDGE_CURVE ( 'NONE', #32, #216, #162, .T. ) ;
#25 = DIRECTION ( 'NONE',  ( 1.000000000000000000, 0.000000000000000000, -0.000000000000000000 ) ) ;
#26 =( NAMED_UNIT ( * ) SI_UNIT ( $, .STERADIAN. ) SOLID_ANGLE_UNIT ( ) );
#27 = APPROVAL_DATE_TIME ( #137, #40 ) ;
#28 = AXIS2_PLACEMENT_3D ( 'NONE', #78, #115, #134 ) ;
#29 = DATE_AND_TIME ( #45, #87 ) ;
#30 = ORIENTED_EDGE ( 'NONE', *, *, #56, .F. ) ;
#31 = COORDINATED_UNIVERSAL_TIME_OFFSET ( 9, 0, .AHEAD. ) ;
#32 = VERTEX_POINT ( 'NONE', #133 ) ;
#33 = ADVANCED_FACE ( 'NONE', ( #39 ), #220, .T. ) ;
#34 = SHAPE_DEFINITION_REPRESENTATION ( #102, #224 ) ;
#35 = VERTEX_POINT ( 'NONE', #21 ) ;
#36 = LINE ( 'NONE', #227, #98 ) ;
#37 = DIRECTION ( 'NONE',  ( 8.260587980841942477E-17, -1.000000000000000000, 0.000000000000000000 ) ) ;
#38 = CARTESIAN_POINT ( 'NONE',  ( 42.00000000000000711, -42.00000000000000000, 5.000000000000000000 ) ) ;
#39 = FACE_OUTER_BOUND ( 'NONE', #63, .T. ) ;
#40 = APPROVAL ( #85, 'UNSPECIFIED' ) ;
#41 = LOCAL_TIME ( 16, 27, 7.000000000000000000, #82 ) ;
#42 = APPLICATION_CONTEXT ( 'configuration controlled 3d designs of mechanical parts and assemblies' ) ;
#43 = FACE_OUTER_BOUND ( 'NONE', #157, .T. ) ;
#44 = PERSON_AND_ORGANIZATION ( #58, #69 ) ;
#45 = CALENDAR_DATE ( 2023, 10, 8 ) ;
#46 = CC_DESIGN_APPROVAL ( #150, ( #117 ) ) ;
#47 = EDGE_LOOP ( 'NONE', ( #125, #18, #49, #180 ) ) ;
#48 = APPROVAL_STATUS ( 'not_yet_approved' ) ;
#49 = ORIENTED_EDGE ( 'NONE', *, *, #64, .F. ) ;
#50 = VECTOR ( 'NONE', #228, 1000.000000000000000 ) ;
#51 = ORIENTED_EDGE ( 'NONE', *, *, #16, .T. ) ;
#52 = CARTESIAN_POINT ( 'NONE',  ( -41.99999999999997868, 42.00000000000001421, 5.000000000000000000 ) ) ;
#53 = PLANE ( 'NONE',  #206 ) ;
#54 = PLANE ( 'NONE',  #144 ) ;
#55 = DIRECTION ( 'NONE',  ( -0.000000000000000000, 0.000000000000000000, -1.000000000000000000 ) ) ;
#56 = EDGE_CURVE ( 'NONE', #216, #89, #36, .T. ) ;
#57 = VECTOR ( 'NONE', #93, 1000.000000000000000 ) ;
#58 = PERSON ( 'UNSPECIFIED', 'UNSPECIFIED', 'UNSPECIFIED', ('UNSPECIFIED'), ('UNSPECIFIED'), ('UNSPECIFIED') ) ;
#59 = CARTESIAN_POINT ( 'NONE',  ( 41.99999999999997868, 42.00000000000002132, 5.000000000000000000 ) ) ;
#60 = LINE ( 'NONE', #136, #57 ) ;
#61 = APPLICATION_PROTOCOL_DEFINITION ( 'international standard', 'config_control_design', 1994, #175 ) ;
#62 = COORDINATED_UNIVERSAL_TIME_OFFSET ( 9, 0, .AHEAD. ) ;
#63 = EDGE_LOOP ( 'NONE', ( #86, #51, #127, #13 ) ) ;
#64 = EDGE_CURVE ( 'NONE', #67, #32, #147, .T. ) ;
#65 = CARTESIAN_POINT ( 'NONE',  ( 42.00000000000000711, -42.00000000000000000, 5.000000000000000000 ) ) ;
#66 =( NAMED_UNIT ( * ) PLANE_ANGLE_UNIT ( ) SI_UNIT ( $, .RADIAN. ) );
#67 = VERTEX_POINT ( 'NONE', #74 ) ;
#68 = ORIENTED_EDGE ( 'NONE', *, *, #223, .T. ) ;
#69 = ORGANIZATION ( 'UNSPECIFIED', 'UNSPECIFIED', '' ) ;
#70 = VERTEX_POINT ( 'NONE', #188 ) ;
#71 = LINE ( 'NONE', #3, #50 ) ;
#72 = DIRECTION ( 'NONE',  ( 0.000000000000000000, -1.000000000000000000, 0.000000000000000000 ) ) ;
#73 = VECTOR ( 'NONE', #204, 1000.000000000000000 ) ;
#74 = CARTESIAN_POINT ( 'NONE',  ( 41.99999999999997868, 42.00000000000002132, 5.000000000000000000 ) ) ;
#75 = EDGE_CURVE ( 'NONE', #67, #70, #171, .T. ) ;
#76 = APPROVAL ( #233, 'UNSPECIFIED' ) ;
#77 = VECTOR ( 'NONE', #145, 1000.000000000000000 ) ;
#78 = CARTESIAN_POINT ( 'NONE',  ( 0.000000000000000000, 0.000000000000000000, 5.000000000000000000 ) ) ;
#79 = CARTESIAN_POINT ( 'NONE',  ( -41.99999999999997868, -42.00000000000000711, 5.000000000000000000 ) ) ;
#80 = SECURITY_CLASSIFICATION_LEVEL ( 'unclassified' ) ;
#81 = PRODUCT_DEFINITION ( 'UNKNOWN', '', #148, #181 ) ;
#82 = COORDINATED_UNIVERSAL_TIME_OFFSET ( 9, 0, .AHEAD. ) ;
#83 = PERSON_AND_ORGANIZATION_ROLE ( 'creator' ) ;
#84 = ORIENTED_EDGE ( 'NONE', *, *, #219, .T. ) ;
#85 = APPROVAL_STATUS ( 'not_yet_approved' ) ;
#86 = ORIENTED_EDGE ( 'NONE', *, *, #131, .T. ) ;
#87 = LOCAL_TIME ( 16, 27, 7.000000000000000000, #158 ) ;
#88 = CARTESIAN_POINT ( 'NONE',  ( 0.000000000000000000, 0.000000000000000000, 0.000000000000000000 ) ) ;
#89 = VERTEX_POINT ( 'NONE', #101 ) ;
#90 = ORIENTED_EDGE ( 'NONE', *, *, #209, .T. ) ;
#91 = VERTEX_POINT ( 'NONE', #100 ) ;
#92 = VECTOR ( 'NONE', #23, 1000.000000000000000 ) ;
#93 = DIRECTION ( 'NONE',  ( 1.000000000000000000, 8.260587980841940012E-17, 0.000000000000000000 ) ) ;
#94 = DATE_AND_TIME ( #200, #140 ) ;
#95 = LINE ( 'NONE', #7, #73 ) ;
#96 = EDGE_CURVE ( 'NONE', #35, #17, #221, .T. ) ;
#97 = PLANE ( 'NONE',  #179 ) ;
#98 = VECTOR ( 'NONE', #116, 1000.000000000000000 ) ;
#99 = CC_DESIGN_DATE_AND_TIME_ASSIGNMENT ( #29, #177, ( #117 ) ) ;
#100 = CARTESIAN_POINT ( 'NONE',  ( -41.99999999999997868, 42.00000000000001421, 0.000000000000000000 ) ) ;
#101 = CARTESIAN_POINT ( 'NONE',  ( -41.99999999999997868, -42.00000000000000711, 0.000000000000000000 ) ) ;
#102 = PRODUCT_DEFINITION_SHAPE ( 'NONE', 'NONE',  #81 ) ;
#103 = DIRECTION ( 'NONE',  ( -0.000000000000000000, -0.000000000000000000, -1.000000000000000000 ) ) ;
#104 = LOCAL_TIME ( 16, 27, 7.000000000000000000, #62 ) ;
#105 = CALENDAR_DATE ( 2023, 10, 8 ) ;
#106 = APPROVAL_DATE_TIME ( #122, #76 ) ;
#107 =( LENGTH_UNIT ( ) NAMED_UNIT ( * ) SI_UNIT ( .MILLI., .METRE. ) );
#108 = ORIENTED_EDGE ( 'NONE', *, *, #96, .T. ) ;
#109 = CC_DESIGN_PERSON_AND_ORGANIZATION_ASSIGNMENT ( #124, #141, ( #148 ) ) ;
#110 = ORIENTED_EDGE ( 'NONE', *, *, #131, .F. ) ;
#111 = PLANE ( 'NONE',  #208 ) ;
#112 = APPROVAL_PERSON_ORGANIZATION ( #230, #76, #193 ) ;
#113 = DIRECTION ( 'NONE',  ( 1.000000000000000000, 8.260587980841942477E-17, 0.000000000000000000 ) ) ;
#114 = EDGE_CURVE ( 'NONE', #70, #91, #95, .T. ) ;
#115 = DIRECTION ( 'NONE',  ( 0.000000000000000000, -0.000000000000000000, 1.000000000000000000 ) ) ;
#116 = DIRECTION ( 'NONE',  ( -0.000000000000000000, -0.000000000000000000, -1.000000000000000000 ) ) ;
#117 = SECURITY_CLASSIFICATION ( '', '', #80 ) ;
#118 = CC_DESIGN_PERSON_AND_ORGANIZATION_ASSIGNMENT ( #126, #194, ( #22 ) ) ;
#119 = PLANE ( 'NONE',  #151 ) ;
#120 = VECTOR ( 'NONE', #103, 1000.000000000000000 ) ;
#121 = PRODUCT_RELATED_PRODUCT_CATEGORY ( 'detail', '', ( #22 ) ) ;
#122 = DATE_AND_TIME ( #139, #104 ) ;
#123 = CC_DESIGN_APPROVAL ( #40, ( #81 ) ) ;
#124 = PERSON_AND_ORGANIZATION ( #58, #69 ) ;
#125 = ORIENTED_EDGE ( 'NONE', *, *, #114, .T. ) ;
#126 = PERSON_AND_ORGANIZATION ( #58, #69 ) ;
#127 = ORIENTED_EDGE ( 'NONE', *, *, #64, .T. ) ;
#128 = ADVANCED_FACE ( 'NONE', ( #185 ), #111, .F. ) ;
#129 = ORIENTED_EDGE ( 'NONE', *, *, #219, .F. ) ;
#130 = DIRECTION ( 'NONE',  ( -1.000000000000000000, -3.304235192336774526E-16, 0.000000000000000000 ) ) ;
#131 = EDGE_CURVE ( 'NONE', #216, #35, #60, .T. ) ;
#132 = CARTESIAN_POINT ( 'NONE',  ( 41.99999999999997868, 42.00000000000002132, 5.000000000000000000 ) ) ;
#133 = CARTESIAN_POINT ( 'NONE',  ( -41.99999999999997868, 42.00000000000001421, 5.000000000000000000 ) ) ;
#134 = DIRECTION ( 'NONE',  ( 1.000000000000000000, 0.000000000000000000, -0.000000000000000000 ) ) ;
#135 = ADVANCED_FACE ( 'NONE', ( #43 ), #119, .F. ) ;
#136 = CARTESIAN_POINT ( 'NONE',  ( -41.99999999999997868, -42.00000000000000711, 5.000000000000000000 ) ) ;
#137 = DATE_AND_TIME ( #105, #41 ) ;
#138 = DATE_TIME_ROLE ( 'creation_date' ) ;
#139 = CALENDAR_DATE ( 2023, 10, 8 ) ;
#140 = LOCAL_TIME ( 16, 27, 7.000000000000000000, #215 ) ;
#141 = PERSON_AND_ORGANIZATION_ROLE ( 'design_supplier' ) ;
#142 = EDGE_CURVE ( 'NONE', #89, #17, #167, .T. ) ;
#143 = EDGE_LOOP ( 'NONE', ( #198, #182, #110, #234 ) ) ;
#144 = AXIS2_PLACEMENT_3D ( 'NONE', #1, #25, #55 ) ;
#145 = DIRECTION ( 'NONE',  ( -3.304235192336774526E-16, 1.000000000000000000, 0.000000000000000000 ) ) ;
#146 = FACE_OUTER_BOUND ( 'NONE', #47, .T. ) ;
#147 = LINE ( 'NONE', #59, #4 ) ;
#148 = PRODUCT_DEFINITION_FORMATION_WITH_SPECIFIED_SOURCE ( 'ANY', '', #22, .NOT_KNOWN. ) ;
#149 = CARTESIAN_POINT ( 'NONE',  ( 42.00000000000000711, -42.00000000000000000, 5.000000000000000000 ) ) ;
#150 = APPROVAL ( #48, 'UNSPECIFIED' ) ;
#151 = AXIS2_PLACEMENT_3D ( 'NONE', #192, #184, #169 ) ;
#152 = DIRECTION ( 'NONE',  ( -8.260587980841940012E-17, 1.000000000000000000, 0.000000000000000000 ) ) ;
#153 = DIRECTION ( 'NONE',  ( 3.304235192336774526E-16, -1.000000000000000000, 0.000000000000000000 ) ) ;
#154 = CARTESIAN_POINT ( 'NONE',  ( -41.99999999999997868, 42.00000000000001421, 5.000000000000000000 ) ) ;
#155 = MECHANICAL_CONTEXT ( 'NONE', #42, 'mechanical' ) ;
#156 = DATE_AND_TIME ( #160, #222 ) ;
#157 = EDGE_LOOP ( 'NONE', ( #163, #129, #217, #183 ) ) ;
#158 = COORDINATED_UNIVERSAL_TIME_OFFSET ( 9, 0, .AHEAD. ) ;
#159 = ORIENTED_EDGE ( 'NONE', *, *, #75, .F. ) ;
#160 = CALENDAR_DATE ( 2023, 10, 8 ) ;
#161 = CC_DESIGN_PERSON_AND_ORGANIZATION_ASSIGNMENT ( #44, #83, ( #81 ) ) ;
#162 = LINE ( 'NONE', #52, #170 ) ;
#163 = ORIENTED_EDGE ( 'NONE', *, *, #142, .F. ) ;
#164 = MANIFOLD_SOLID_BREP ( 'ÎÞ½ - µoµ1', #166 ) ;
#165 = LINE ( 'NONE', #65, #77 ) ;
#166 = CLOSED_SHELL ( 'NONE', ( #128, #195, #213, #187, #33, #135 ) ) ;
#167 = LINE ( 'NONE', #19, #191 ) ;
#168 = LINE ( 'NONE', #2, #212 ) ;
#169 = DIRECTION ( 'NONE',  ( 1.000000000000000000, 0.000000000000000000, -0.000000000000000000 ) ) ;
#170 = VECTOR ( 'NONE', #201, 1000.000000000000000 ) ;
#171 = LINE ( 'NONE', #132, #232 ) ;
#172 = DIRECTION ( 'NONE',  ( -1.000000000000000000, -8.260587980841940012E-17, 0.000000000000000000 ) ) ;
#173 = APPLICATION_PROTOCOL_DEFINITION ( 'international standard', 'config_control_design', 1994, #42 ) ;
#174 = APPROVAL_PERSON_ORGANIZATION ( #214, #150, #218 ) ;
#175 = APPLICATION_CONTEXT ( 'configuration controlled 3d designs of mechanical parts and assemblies' ) ;
#176 = DIRECTION ( 'NONE',  ( 0.000000000000000000, 0.000000000000000000, 1.000000000000000000 ) ) ;
#177 = DATE_TIME_ROLE ( 'classification_date' ) ;
#178 = EDGE_LOOP ( 'NONE', ( #84, #30, #199, #68 ) ) ;
#179 = AXIS2_PLACEMENT_3D ( 'NONE', #38, #130, #153 ) ;
#180 = ORIENTED_EDGE ( 'NONE', *, *, #75, .T. ) ;
#181 = DESIGN_CONTEXT ( 'detailed design', #175, 'design' ) ;
#182 = ORIENTED_EDGE ( 'NONE', *, *, #96, .F. ) ;
#183 = ORIENTED_EDGE ( 'NONE', *, *, #209, .F. ) ;
#184 = DIRECTION ( 'NONE',  ( 0.000000000000000000, -0.000000000000000000, 1.000000000000000000 ) ) ;
#185 = FACE_OUTER_BOUND ( 'NONE', #143, .T. ) ;
#186 = DIRECTION ( 'NONE',  ( -0.000000000000000000, -0.000000000000000000, -1.000000000000000000 ) ) ;
#187 = ADVANCED_FACE ( 'NONE', ( #225 ), #54, .F. ) ;
#188 = CARTESIAN_POINT ( 'NONE',  ( 41.99999999999997868, 42.00000000000002132, 0.000000000000000000 ) ) ;
#189 =( GEOMETRIC_REPRESENTATION_CONTEXT ( 3 ) GLOBAL_UNCERTAINTY_ASSIGNED_CONTEXT ( ( #210 ) ) GLOBAL_UNIT_ASSIGNED_CONTEXT ( ( #107, #66, #26 ) ) REPRESENTATION_CONTEXT ( 'NONE', 'WORKASPACE' ) );
#190 = CC_DESIGN_SECURITY_CLASSIFICATION ( #117, ( #148 ) ) ;
#191 = VECTOR ( 'NONE', #8, 1000.000000000000000 ) ;
#192 = CARTESIAN_POINT ( 'NONE',  ( 0.000000000000000000, 0.000000000000000000, 0.000000000000000000 ) ) ;
#193 = APPROVAL_ROLE ( '' ) ;
#194 = PERSON_AND_ORGANIZATION_ROLE ( 'design_owner' ) ;
#195 = ADVANCED_FACE ( 'NONE', ( #205 ), #97, .F. ) ;
#196 = DIRECTION ( 'NONE',  ( 1.000000000000000000, 0.000000000000000000, 0.000000000000000000 ) ) ;
#197 = PERSON_AND_ORGANIZATION_ROLE ( 'classification_officer' ) ;
#198 = ORIENTED_EDGE ( 'NONE', *, *, #142, .T. ) ;
#199 = ORIENTED_EDGE ( 'NONE', *, *, #24, .F. ) ;
#200 = CALENDAR_DATE ( 2023, 10, 8 ) ;
#201 = DIRECTION ( 'NONE',  ( 0.000000000000000000, -1.000000000000000000, 0.000000000000000000 ) ) ;
#202 = APPROVAL_DATE_TIME ( #94, #150 ) ;
#203 = CARTESIAN_POINT ( 'NONE',  ( 41.99999999999997868, 42.00000000000002132, 5.000000000000000000 ) ) ;
#204 = DIRECTION ( 'NONE',  ( -1.000000000000000000, -8.260587980841942477E-17, 0.000000000000000000 ) ) ;
#205 = FACE_OUTER_BOUND ( 'NONE', #237, .T. ) ;
#206 = AXIS2_PLACEMENT_3D ( 'NONE', #203, #37, #113 ) ;
#207 = DIRECTION ( 'NONE',  ( -1.000000000000000000, -8.260587980841942477E-17, 0.000000000000000000 ) ) ;
#208 = AXIS2_PLACEMENT_3D ( 'NONE', #79, #152, #172 ) ;
#209 = EDGE_CURVE ( 'NONE', #17, #70, #71, .T. ) ;
#210 = UNCERTAINTY_MEASURE_WITH_UNIT (LENGTH_MEASURE( 1.000000000000000082E-05 ), #107, 'distance_accuracy_value', 'NONE');
#211 = PERSON_AND_ORGANIZATION_ROLE ( 'creator' ) ;
#212 = VECTOR ( 'NONE', #72, 1000.000000000000000 ) ;
#213 = ADVANCED_FACE ( 'NONE', ( #146 ), #53, .F. ) ;
#214 = PERSON_AND_ORGANIZATION ( #58, #69 ) ;
#215 = COORDINATED_UNIVERSAL_TIME_OFFSET ( 9, 0, .AHEAD. ) ;
#216 = VERTEX_POINT ( 'NONE', #20 ) ;
#217 = ORIENTED_EDGE ( 'NONE', *, *, #114, .F. ) ;
#218 = APPROVAL_ROLE ( '' ) ;
#219 = EDGE_CURVE ( 'NONE', #91, #89, #168, .T. ) ;
#220 = PLANE ( 'NONE',  #28 ) ;
#221 = LINE ( 'NONE', #149, #92 ) ;
#222 = LOCAL_TIME ( 16, 27, 7.000000000000000000, #31 ) ;
#223 = EDGE_CURVE ( 'NONE', #32, #91, #231, .T. ) ;
#224 = ADVANCED_BREP_SHAPE_REPRESENTATION ( 'FE-460-3-F1', ( #164, #226 ), #189 ) ;
#225 = FACE_OUTER_BOUND ( 'NONE', #178, .T. ) ;
#226 = AXIS2_PLACEMENT_3D ( 'NONE', #88, #176, #196 ) ;
#227 = CARTESIAN_POINT ( 'NONE',  ( -41.99999999999997868, -42.00000000000000711, 5.000000000000000000 ) ) ;
#228 = DIRECTION ( 'NONE',  ( -3.304235192336774526E-16, 1.000000000000000000, 0.000000000000000000 ) ) ;
#229 = PERSON_AND_ORGANIZATION ( #58, #69 ) ;
#230 = PERSON_AND_ORGANIZATION ( #58, #69 ) ;
#231 = LINE ( 'NONE', #154, #120 ) ;
#232 = VECTOR ( 'NONE', #186, 1000.000000000000000 ) ;
#233 = APPROVAL_STATUS ( 'not_yet_approved' ) ;
#234 = ORIENTED_EDGE ( 'NONE', *, *, #56, .T. ) ;
#235 = ORIENTED_EDGE ( 'NONE', *, *, #16, .F. ) ;
#236 = CC_DESIGN_PERSON_AND_ORGANIZATION_ASSIGNMENT ( #11, #211, ( #148 ) ) ;
#237 = EDGE_LOOP ( 'NONE', ( #90, #159, #235, #108 ) ) ;
ENDSEC;
END-ISO-10303-21;
