ISO-10303-21;
HEADER;
FILE_DESCRIPTION (( 'STEP AP203' ),
    '1' );
FILE_NAME ('FE-460-2-F3.STEP',
    '2023-08-10T07:26:15',
    ( '' ),
    ( '' ),
    'SwSTEP 2.0',
    'SolidWorks 2021',
    '' );
FILE_SCHEMA (( 'CONFIG_CONTROL_DESIGN' ));
ENDSEC;

DATA;
#1 = DIRECTION ( 'NONE',  ( 1.217349807703023348E-16, -1.000000000000000000, 0.000000000000000000 ) ) ;
#2 = DIRECTION ( 'NONE',  ( 0.000000000000000000, 0.000000000000000000, -1.000000000000000000 ) ) ;
#3 = DIRECTION ( 'NONE',  ( 0.000000000000000000, 0.000000000000000000, -1.000000000000000000 ) ) ;
#4 = ORIENTED_EDGE ( 'NONE', *, *, #171, .T. ) ;
#5 = LOCAL_TIME ( 16, 26, 15.00000000000000000, #72 ) ;
#6 = CARTESIAN_POINT ( 'NONE',  ( 0.000000000000000000, 0.000000000000000000, 6.500000000000000000 ) ) ;
#7 = ORIENTED_EDGE ( 'NONE', *, *, #366, .F. ) ;
#8 = DIRECTION ( 'NONE',  ( 1.000000000000000000, 1.217349807703022855E-16, 0.000000000000000000 ) ) ;
#9 = ORIENTED_EDGE ( 'NONE', *, *, #176, .F. ) ;
#10 = APPROVAL_ROLE ( '' ) ;
#11 = CARTESIAN_POINT ( 'NONE',  ( -56.99999999999997158, 52.00000000000001421, 6.500000000000000000 ) ) ;
#12 = VERTEX_POINT ( 'NONE', #77 ) ;
#13 = EDGE_CURVE ( 'NONE', #196, #237, #365, .T. ) ;
#14 = COORDINATED_UNIVERSAL_TIME_OFFSET ( 9, 0, .AHEAD. ) ;
#15 = ORIENTED_EDGE ( 'NONE', *, *, #116, .T. ) ;
#16 = EDGE_LOOP ( 'NONE', ( #289, #153, #71, #166 ) ) ;
#17 = VECTOR ( 'NONE', #226, 1000.000000000000114 ) ;
#18 = VECTOR ( 'NONE', #85, 1000.000000000000114 ) ;
#19 = CALENDAR_DATE ( 2023, 10, 8 ) ;
#20 = CARTESIAN_POINT ( 'NONE',  ( 57.00000000000000000, -56.99999999999998579, 6.500000000000000000 ) ) ;
#21 = ORIENTED_EDGE ( 'NONE', *, *, #319, .F. ) ;
#22 = PERSON_AND_ORGANIZATION ( #59, #234 ) ;
#23 = PLANE ( 'NONE',  #179 ) ;
#24 = DIRECTION ( 'NONE',  ( 0.000000000000000000, 0.000000000000000000, -1.000000000000000000 ) ) ;
#25 = EDGE_CURVE ( 'NONE', #30, #184, #335, .T. ) ;
#26 = DIRECTION ( 'NONE',  ( 0.7071067811865465735, -0.7071067811865484609, -0.000000000000000000 ) ) ;
#27 = CARTESIAN_POINT ( 'NONE',  ( 56.99999999999997158, 57.00000000000001421, 6.500000000000000000 ) ) ;
#28 = LINE ( 'NONE', #27, #181 ) ;
#29 = VECTOR ( 'NONE', #355, 1000.000000000000000 ) ;
#30 = VERTEX_POINT ( 'NONE', #167 ) ;
#31 = DIRECTION ( 'NONE',  ( -0.7071067811865465735, 0.7071067811865484609, -0.000000000000000000 ) ) ;
#32 = LINE ( 'NONE', #262, #18 ) ;
#33 = DIRECTION ( 'NONE',  ( 0.000000000000000000, -0.000000000000000000, 1.000000000000000000 ) ) ;
#34 = EDGE_CURVE ( 'NONE', #175, #155, #108, .T. ) ;
#35 = PERSON_AND_ORGANIZATION ( #59, #234 ) ;
#36 = ORIENTED_EDGE ( 'NONE', *, *, #334, .T. ) ;
#37 = ADVANCED_BREP_SHAPE_REPRESENTATION ( 'FE-460-2-F3', ( #55, #139 ), #169 ) ;
#38 = PERSON_AND_ORGANIZATION ( #59, #234 ) ;
#39 = ORIENTED_EDGE ( 'NONE', *, *, #187, .T. ) ;
#40 = ORIENTED_EDGE ( 'NONE', *, *, #160, .T. ) ;
#41 = LOCAL_TIME ( 16, 26, 15.00000000000000000, #214 ) ;
#42 = DATE_AND_TIME ( #273, #286 ) ;
#43 = VERTEX_POINT ( 'NONE', #215 ) ;
#44 = APPLICATION_PROTOCOL_DEFINITION ( 'international standard', 'config_control_design', 1994, #148 ) ;
#45 = ORIENTED_EDGE ( 'NONE', *, *, #308, .T. ) ;
#46 = LINE ( 'NONE', #82, #150 ) ;
#47 = CLOSED_SHELL ( 'NONE', ( #127, #90, #249, #344, #291, #263, #261, #146, #356, #248 ) ) ;
#48 = COORDINATED_UNIVERSAL_TIME_OFFSET ( 9, 0, .AHEAD. ) ;
#49 = LINE ( 'NONE', #133, #297 ) ;
#50 = ORIENTED_EDGE ( 'NONE', *, *, #308, .F. ) ;
#51 = CARTESIAN_POINT ( 'NONE',  ( 57.00000000000000000, -56.99999999999998579, 0.000000000000000000 ) ) ;
#52 = APPROVAL_PERSON_ORGANIZATION ( #35, #91, #10 ) ;
#53 = DIRECTION ( 'NONE',  ( 0.7071067811865485719, 0.7071067811865465735, -0.000000000000000000 ) ) ;
#54 = CARTESIAN_POINT ( 'NONE',  ( -52.00000000000002842, -57.00000000000000000, 0.000000000000000000 ) ) ;
#55 = MANIFOLD_SOLID_BREP ( 'C5', #47 ) ;
#56 = CARTESIAN_POINT ( 'NONE',  ( -56.99999999999997158, -52.00000000000002842, 6.500000000000000000 ) ) ;
#57 = FACE_OUTER_BOUND ( 'NONE', #16, .T. ) ;
#58 = ORIENTED_EDGE ( 'NONE', *, *, #334, .F. ) ;
#59 = PERSON ( 'UNSPECIFIED', 'UNSPECIFIED', 'UNSPECIFIED', ('UNSPECIFIED'), ('UNSPECIFIED'), ('UNSPECIFIED') ) ;
#60 = DIRECTION ( 'NONE',  ( 0.000000000000000000, 0.000000000000000000, -1.000000000000000000 ) ) ;
#61 = ORIENTED_EDGE ( 'NONE', *, *, #233, .T. ) ;
#62 = FACE_OUTER_BOUND ( 'NONE', #301, .T. ) ;
#63 = EDGE_CURVE ( 'NONE', #184, #66, #49, .T. ) ;
#64 = CC_DESIGN_PERSON_AND_ORGANIZATION_ASSIGNMENT ( #22, #100, ( #211 ) ) ;
#65 = LINE ( 'NONE', #68, #323 ) ;
#66 = VERTEX_POINT ( 'NONE', #245 ) ;
#67 = AXIS2_PLACEMENT_3D ( 'NONE', #6, #33, #111 ) ;
#68 = CARTESIAN_POINT ( 'NONE',  ( -56.99999999999997158, -57.00000000000000000, 6.500000000000000000 ) ) ;
#69 = APPROVAL_STATUS ( 'not_yet_approved' ) ;
#70 = PRODUCT_RELATED_PRODUCT_CATEGORY ( 'detail', '', ( #182 ) ) ;
#71 = ORIENTED_EDGE ( 'NONE', *, *, #116, .F. ) ;
#72 = COORDINATED_UNIVERSAL_TIME_OFFSET ( 9, 0, .AHEAD. ) ;
#73 =( LENGTH_UNIT ( ) NAMED_UNIT ( * ) SI_UNIT ( .MILLI., .METRE. ) );
#74 = EDGE_LOOP ( 'NONE', ( #264, #121, #328, #9 ) ) ;
#75 = SECURITY_CLASSIFICATION_LEVEL ( 'unclassified' ) ;
#76 = DIRECTION ( 'NONE',  ( 0.000000000000000000, 0.000000000000000000, -1.000000000000000000 ) ) ;
#77 = CARTESIAN_POINT ( 'NONE',  ( -56.99999999999997158, -52.00000000000000000, 6.500000000000000000 ) ) ;
#78 = APPROVAL_PERSON_ORGANIZATION ( #156, #206, #162 ) ;
#79 = PLANE ( 'NONE',  #242 ) ;
#80 = DIRECTION ( 'NONE',  ( 0.000000000000000000, -1.000000000000000000, 0.000000000000000000 ) ) ;
#81 = EDGE_CURVE ( 'NONE', #43, #157, #46, .T. ) ;
#82 = CARTESIAN_POINT ( 'NONE',  ( 52.00000000000000000, 57.00000000000001421, 6.500000000000000000 ) ) ;
#83 = VECTOR ( 'NONE', #131, 1000.000000000000000 ) ;
#84 = DIRECTION ( 'NONE',  ( 0.000000000000000000, 0.000000000000000000, 1.000000000000000000 ) ) ;
#85 = DIRECTION ( 'NONE',  ( 0.7071067811865455743, -0.7071067811865493491, -0.000000000000000000 ) ) ;
#86 = DIRECTION ( 'NONE',  ( -0.7071067811865485719, -0.7071067811865465735, -0.000000000000000000 ) ) ;
#87 = CARTESIAN_POINT ( 'NONE',  ( 57.00000000000000000, -52.00000000000000000, 6.500000000000000000 ) ) ;
#88 = CARTESIAN_POINT ( 'NONE',  ( 56.99999999999997158, 57.00000000000001421, 6.500000000000000000 ) ) ;
#89 = VERTEX_POINT ( 'NONE', #244 ) ;
#90 = ADVANCED_FACE ( 'NONE', ( #278 ), #79, .F. ) ;
#91 = APPROVAL ( #154, 'UNSPECIFIED' ) ;
#92 = DATE_AND_TIME ( #348, #5 ) ;
#93 = EDGE_LOOP ( 'NONE', ( #40, #213, #210, #241, #274, #61, #97, #271 ) ) ;
#94 = EDGE_LOOP ( 'NONE', ( #45, #125, #256, #191 ) ) ;
#95 = AXIS2_PLACEMENT_3D ( 'NONE', #137, #332, #216 ) ;
#96 = DIRECTION ( 'NONE',  ( 1.000000000000000000, 0.000000000000000000, 0.000000000000000000 ) ) ;
#97 = ORIENTED_EDGE ( 'NONE', *, *, #186, .T. ) ;
#98 = DIRECTION ( 'NONE',  ( 1.000000000000000000, 0.000000000000000000, -0.000000000000000000 ) ) ;
#99 = ORIENTED_EDGE ( 'NONE', *, *, #197, .T. ) ;
#100 = PERSON_AND_ORGANIZATION_ROLE ( 'design_supplier' ) ;
#101 = ORIENTED_EDGE ( 'NONE', *, *, #302, .F. ) ;
#102 = EDGE_CURVE ( 'NONE', #239, #196, #104, .T. ) ;
#103 = CALENDAR_DATE ( 2023, 10, 8 ) ;
#104 = LINE ( 'NONE', #310, #295 ) ;
#105 = FACE_OUTER_BOUND ( 'NONE', #303, .T. ) ;
#106 = DIRECTION ( 'NONE',  ( 0.000000000000000000, 0.000000000000000000, -1.000000000000000000 ) ) ;
#107 = DIRECTION ( 'NONE',  ( 0.7071067811865485719, 0.7071067811865465735, -0.000000000000000000 ) ) ;
#108 = LINE ( 'NONE', #279, #83 ) ;
#109 = AXIS2_PLACEMENT_3D ( 'NONE', #147, #345, #3 ) ;
#110 = VECTOR ( 'NONE', #86, 1000.000000000000000 ) ;
#111 = DIRECTION ( 'NONE',  ( 1.000000000000000000, 0.000000000000000000, -0.000000000000000000 ) ) ;
#112 = LINE ( 'NONE', #54, #17 ) ;
#113 = FACE_OUTER_BOUND ( 'NONE', #93, .T. ) ;
#114 = ORIENTED_EDGE ( 'NONE', *, *, #145, .T. ) ;
#115 = APPROVAL_PERSON_ORGANIZATION ( #165, #201, #212 ) ;
#116 = EDGE_CURVE ( 'NONE', #157, #175, #283, .T. ) ;
#117 = DIRECTION ( 'NONE',  ( 0.7071067811865494601, 0.7071067811865456854, 0.000000000000000000 ) ) ;
#118 = ORIENTED_EDGE ( 'NONE', *, *, #197, .F. ) ;
#119 = DIRECTION ( 'NONE',  ( 0.000000000000000000, -1.000000000000000000, 0.000000000000000000 ) ) ;
#120 = ORIENTED_EDGE ( 'NONE', *, *, #176, .T. ) ;
#121 = ORIENTED_EDGE ( 'NONE', *, *, #13, .F. ) ;
#122 = CC_DESIGN_APPROVAL ( #206, ( #276 ) ) ;
#123 = CARTESIAN_POINT ( 'NONE',  ( -56.99999999999997158, -57.00000000000000000, 0.000000000000000000 ) ) ;
#124 = DIRECTION ( 'NONE',  ( 0.7071067811865464625, -0.7071067811865485719, 0.000000000000000000 ) ) ;
#125 = ORIENTED_EDGE ( 'NONE', *, *, #13, .T. ) ;
#126 = FACE_OUTER_BOUND ( 'NONE', #311, .T. ) ;
#127 = ADVANCED_FACE ( 'NONE', ( #105 ), #220, .F. ) ;
#128 = VECTOR ( 'NONE', #170, 1000.000000000000000 ) ;
#129 = CC_DESIGN_PERSON_AND_ORGANIZATION_ASSIGNMENT ( #280, #275, ( #211 ) ) ;
#130 = APPROVAL_DATE_TIME ( #359, #201 ) ;
#131 = DIRECTION ( 'NONE',  ( 0.000000000000000000, 0.000000000000000000, 1.000000000000000000 ) ) ;
#132 = APPROVAL_DATE_TIME ( #305, #91 ) ;
#133 = CARTESIAN_POINT ( 'NONE',  ( 57.00000000000000000, -52.00000000000000000, 6.500000000000000000 ) ) ;
#134 = DATE_TIME_ROLE ( 'classification_date' ) ;
#135 = DIRECTION ( 'NONE',  ( -0.7071067811865464625, 0.7071067811865485719, 0.000000000000000000 ) ) ;
#136 = LINE ( 'NONE', #194, #338 ) ;
#137 = CARTESIAN_POINT ( 'NONE',  ( -56.99999999999997158, -57.00000000000000000, 6.500000000000000000 ) ) ;
#138 = CARTESIAN_POINT ( 'NONE',  ( 56.99999999999997158, 57.00000000000001421, 0.000000000000000000 ) ) ;
#139 = AXIS2_PLACEMENT_3D ( 'NONE', #353, #300, #96 ) ;
#140 = VECTOR ( 'NONE', #168, 1000.000000000000000 ) ;
#141 = CARTESIAN_POINT ( 'NONE',  ( -54.49999999999990763, 54.50000000000006395, 6.500000000000000000 ) ) ;
#142 = ORIENTED_EDGE ( 'NONE', *, *, #63, .T. ) ;
#143 = CARTESIAN_POINT ( 'NONE',  ( -51.99999999999997158, 57.00000000000000000, 0.000000000000000000 ) ) ;
#144 = ORIENTED_EDGE ( 'NONE', *, *, #302, .T. ) ;
#145 = EDGE_CURVE ( 'NONE', #351, #30, #136, .T. ) ;
#146 = ADVANCED_FACE ( 'NONE', ( #281 ), #23, .F. ) ;
#147 = CARTESIAN_POINT ( 'NONE',  ( 52.00000000000000000, 57.00000000000001421, 6.500000000000000000 ) ) ;
#148 = APPLICATION_CONTEXT ( 'configuration controlled 3d designs of mechanical parts and assemblies' ) ;
#149 = CARTESIAN_POINT ( 'NONE',  ( -52.00000000000002842, -57.00000000000000000, 6.500000000000000000 ) ) ;
#150 = VECTOR ( 'NONE', #76, 1000.000000000000000 ) ;
#151 = DESIGN_CONTEXT ( 'detailed design', #259, 'design' ) ;
#152 = LINE ( 'NONE', #123, #29 ) ;
#153 = ORIENTED_EDGE ( 'NONE', *, *, #34, .F. ) ;
#154 = APPROVAL_STATUS ( 'not_yet_approved' ) ;
#155 = VERTEX_POINT ( 'NONE', #247 ) ;
#156 = PERSON_AND_ORGANIZATION ( #59, #234 ) ;
#157 = VERTEX_POINT ( 'NONE', #362 ) ;
#158 = APPROVAL_DATE_TIME ( #42, #206 ) ;
#159 = ORIENTED_EDGE ( 'NONE', *, *, #329, .T. ) ;
#160 = EDGE_CURVE ( 'NONE', #89, #12, #336, .T. ) ;
#161 = CC_DESIGN_DATE_AND_TIME_ASSIGNMENT ( #92, #180, ( #276 ) ) ;
#162 = APPROVAL_ROLE ( '' ) ;
#163 = VECTOR ( 'NONE', #339, 1000.000000000000000 ) ;
#164 = ORIENTED_EDGE ( 'NONE', *, *, #171, .F. ) ;
#165 = PERSON_AND_ORGANIZATION ( #59, #234 ) ;
#166 = ORIENTED_EDGE ( 'NONE', *, *, #81, .F. ) ;
#167 = CARTESIAN_POINT ( 'NONE',  ( 52.00000000000000000, -56.99999999999998579, 6.500000000000000000 ) ) ;
#168 = DIRECTION ( 'NONE',  ( -2.434699615406045218E-16, 1.000000000000000000, 0.000000000000000000 ) ) ;
#169 =( GEOMETRIC_REPRESENTATION_CONTEXT ( 3 ) GLOBAL_UNCERTAINTY_ASSIGNED_CONTEXT ( ( #266 ) ) GLOBAL_UNIT_ASSIGNED_CONTEXT ( ( #73, #209, #183 ) ) REPRESENTATION_CONTEXT ( 'NONE', 'WORKASPACE' ) );
#170 = DIRECTION ( 'NONE',  ( 0.000000000000000000, 0.000000000000000000, 1.000000000000000000 ) ) ;
#171 = EDGE_CURVE ( 'NONE', #66, #175, #195, .T. ) ;
#172 = DIRECTION ( 'NONE',  ( 1.000000000000000000, 1.217349807703023348E-16, 0.000000000000000000 ) ) ;
#173 = CARTESIAN_POINT ( 'NONE',  ( 0.000000000000000000, 0.000000000000000000, 0.000000000000000000 ) ) ;
#174 = PLANE ( 'NONE',  #67 ) ;
#175 = VERTEX_POINT ( 'NONE', #282 ) ;
#176 = EDGE_CURVE ( 'NONE', #89, #239, #364, .T. ) ;
#177 = DIRECTION ( 'NONE',  ( -2.434699615406045218E-16, 1.000000000000000000, 0.000000000000000000 ) ) ;
#178 = PLANE ( 'NONE',  #304 ) ;
#179 = AXIS2_PLACEMENT_3D ( 'NONE', #190, #135, #106 ) ;
#180 = DATE_TIME_ROLE ( 'creation_date' ) ;
#181 = VECTOR ( 'NONE', #203, 1000.000000000000000 ) ;
#182 = PRODUCT ( 'FE-460-2-F3', 'FE-460-2-F3', '', ( #326 ) ) ;
#183 =( NAMED_UNIT ( * ) SI_UNIT ( $, .STERADIAN. ) SOLID_ANGLE_UNIT ( ) );
#184 = VERTEX_POINT ( 'NONE', #87 ) ;
#185 = CARTESIAN_POINT ( 'NONE',  ( -56.99999999999997158, 57.00000000000000000, 0.000000000000000000 ) ) ;
#186 = EDGE_CURVE ( 'NONE', #43, #237, #28, .T. ) ;
#187 = EDGE_CURVE ( 'NONE', #243, #231, #257, .T. ) ;
#188 = FACE_OUTER_BOUND ( 'NONE', #74, .T. ) ;
#189 = PERSON_AND_ORGANIZATION_ROLE ( 'classification_officer' ) ;
#190 = CARTESIAN_POINT ( 'NONE',  ( 57.00000000000000000, -52.00000000000000000, 6.500000000000000000 ) ) ;
#191 = ORIENTED_EDGE ( 'NONE', *, *, #81, .T. ) ;
#192 = CC_DESIGN_APPROVAL ( #91, ( #211 ) ) ;
#193 = VECTOR ( 'NONE', #204, 1000.000000000000000 ) ;
#194 = CARTESIAN_POINT ( 'NONE',  ( 52.00000000000000000, -56.99999999999998579, 6.500000000000000000 ) ) ;
#195 = LINE ( 'NONE', #51, #140 ) ;
#196 = VERTEX_POINT ( 'NONE', #143 ) ;
#197 = EDGE_CURVE ( 'NONE', #324, #12, #317, .T. ) ;
#198 = AXIS2_PLACEMENT_3D ( 'NONE', #88, #1, #172 ) ;
#199 = DIRECTION ( 'NONE',  ( 0.000000000000000000, -0.000000000000000000, 1.000000000000000000 ) ) ;
#200 = FACE_OUTER_BOUND ( 'NONE', #287, .T. ) ;
#201 = APPROVAL ( #246, 'UNSPECIFIED' ) ;
#202 = LINE ( 'NONE', #141, #193 ) ;
#203 = DIRECTION ( 'NONE',  ( -1.000000000000000000, -1.217349807703023102E-16, 0.000000000000000000 ) ) ;
#204 = DIRECTION ( 'NONE',  ( -0.7071067811865485719, -0.7071067811865465735, -0.000000000000000000 ) ) ;
#205 = ORIENTED_EDGE ( 'NONE', *, *, #102, .T. ) ;
#206 = APPROVAL ( #69, 'UNSPECIFIED' ) ;
#207 = VECTOR ( 'NONE', #80, 1000.000000000000000 ) ;
#208 = ORIENTED_EDGE ( 'NONE', *, *, #329, .F. ) ;
#209 =( NAMED_UNIT ( * ) PLANE_ANGLE_UNIT ( ) SI_UNIT ( $, .RADIAN. ) );
#210 = ORIENTED_EDGE ( 'NONE', *, *, #366, .T. ) ;
#211 = PRODUCT_DEFINITION_FORMATION_WITH_SPECIFIED_SOURCE ( 'ANY', '', #182, .NOT_KNOWN. ) ;
#212 = APPROVAL_ROLE ( '' ) ;
#213 = ORIENTED_EDGE ( 'NONE', *, *, #232, .T. ) ;
#214 = COORDINATED_UNIVERSAL_TIME_OFFSET ( 9, 0, .AHEAD. ) ;
#215 = CARTESIAN_POINT ( 'NONE',  ( 52.00000000000000000, 57.00000000000001421, 6.500000000000000000 ) ) ;
#216 = DIRECTION ( 'NONE',  ( -1.000000000000000000, -1.217349807703022855E-16, 0.000000000000000000 ) ) ;
#217 = CC_DESIGN_APPROVAL ( #201, ( #316 ) ) ;
#218 = CARTESIAN_POINT ( 'NONE',  ( -56.99999999999997158, 57.00000000000000000, 6.500000000000000000 ) ) ;
#219 = SHAPE_DEFINITION_REPRESENTATION ( #292, #37 ) ;
#220 = PLANE ( 'NONE',  #95 ) ;
#221 = EDGE_CURVE ( 'NONE', #184, #155, #229, .T. ) ;
#222 = EDGE_CURVE ( 'NONE', #237, #89, #202, .T. ) ;
#223 = LINE ( 'NONE', #138, #163 ) ;
#224 = AXIS2_PLACEMENT_3D ( 'NONE', #235, #98, #272 ) ;
#225 = AXIS2_PLACEMENT_3D ( 'NONE', #320, #117, #60 ) ;
#226 = DIRECTION ( 'NONE',  ( -0.7071067811865455743, 0.7071067811865493491, 0.000000000000000000 ) ) ;
#227 = CARTESIAN_POINT ( 'NONE',  ( 57.00000000000000000, -52.00000000000000000, 0.000000000000000000 ) ) ;
#228 = CARTESIAN_POINT ( 'NONE',  ( -56.99999999999997158, -52.00000000000000000, 0.000000000000000000 ) ) ;
#229 = LINE ( 'NONE', #342, #369 ) ;
#230 = PERSON_AND_ORGANIZATION ( #59, #234 ) ;
#231 = VERTEX_POINT ( 'NONE', #290 ) ;
#232 = EDGE_CURVE ( 'NONE', #12, #243, #32, .T. ) ;
#233 = EDGE_CURVE ( 'NONE', #155, #43, #284, .T. ) ;
#234 = ORGANIZATION ( 'UNSPECIFIED', 'UNSPECIFIED', '' ) ;
#235 = CARTESIAN_POINT ( 'NONE',  ( -56.99999999999997158, 57.00000000000000000, 6.500000000000000000 ) ) ;
#236 = AXIS2_PLACEMENT_3D ( 'NONE', #11, #124, #240 ) ;
#237 = VERTEX_POINT ( 'NONE', #315 ) ;
#238 = PERSON_AND_ORGANIZATION_ROLE ( 'creator' ) ;
#239 = VERTEX_POINT ( 'NONE', #288 ) ;
#240 = DIRECTION ( 'NONE',  ( 0.000000000000000000, 0.000000000000000000, -1.000000000000000000 ) ) ;
#241 = ORIENTED_EDGE ( 'NONE', *, *, #25, .T. ) ;
#242 = AXIS2_PLACEMENT_3D ( 'NONE', #20, #337, #360 ) ;
#243 = VERTEX_POINT ( 'NONE', #252 ) ;
#244 = CARTESIAN_POINT ( 'NONE',  ( -56.99999999999997158, 52.00000000000001421, 6.500000000000000000 ) ) ;
#245 = CARTESIAN_POINT ( 'NONE',  ( 57.00000000000000000, -52.00000000000000000, 0.000000000000000000 ) ) ;
#246 = APPROVAL_STATUS ( 'not_yet_approved' ) ;
#247 = CARTESIAN_POINT ( 'NONE',  ( 56.99999999999997158, 52.00000000000000000, 6.500000000000000000 ) ) ;
#248 = ADVANCED_FACE ( 'NONE', ( #57 ), #254, .F. ) ;
#249 = ADVANCED_FACE ( 'NONE', ( #343 ), #255, .F. ) ;
#250 = ORIENTED_EDGE ( 'NONE', *, *, #319, .T. ) ;
#251 = EDGE_LOOP ( 'NONE', ( #299, #349, #21, #318 ) ) ;
#252 = CARTESIAN_POINT ( 'NONE',  ( -52.00000000000002842, -57.00000000000000000, 6.500000000000000000 ) ) ;
#253 = VECTOR ( 'NONE', #2, 1000.000000000000000 ) ;
#254 = PLANE ( 'NONE',  #109 ) ;
#255 = PLANE ( 'NONE',  #198 ) ;
#256 = ORIENTED_EDGE ( 'NONE', *, *, #186, .F. ) ;
#257 = LINE ( 'NONE', #149, #253 ) ;
#258 = EDGE_LOOP ( 'NONE', ( #327, #142, #4, #354 ) ) ;
#259 = APPLICATION_CONTEXT ( 'configuration controlled 3d designs of mechanical parts and assemblies' ) ;
#260 = LOCAL_TIME ( 16, 26, 15.00000000000000000, #267 ) ;
#261 = ADVANCED_FACE ( 'NONE', ( #200 ), #368, .F. ) ;
#262 = CARTESIAN_POINT ( 'NONE',  ( -54.50000000000014921, -54.49999999999985079, 6.500000000000000000 ) ) ;
#263 = ADVANCED_FACE ( 'NONE', ( #62 ), #178, .F. ) ;
#264 = ORIENTED_EDGE ( 'NONE', *, *, #222, .F. ) ;
#265 = LINE ( 'NONE', #185, #333 ) ;
#266 = UNCERTAINTY_MEASURE_WITH_UNIT (LENGTH_MEASURE( 1.000000000000000082E-05 ), #73, 'distance_accuracy_value', 'NONE');
#267 = COORDINATED_UNIVERSAL_TIME_OFFSET ( 9, 0, .AHEAD. ) ;
#268 = CC_DESIGN_DATE_AND_TIME_ASSIGNMENT ( #363, #134, ( #316 ) ) ;
#269 = LOCAL_TIME ( 16, 26, 15.00000000000000000, #48 ) ;
#270 = PERSON_AND_ORGANIZATION_ROLE ( 'design_owner' ) ;
#271 = ORIENTED_EDGE ( 'NONE', *, *, #222, .T. ) ;
#272 = DIRECTION ( 'NONE',  ( -0.000000000000000000, 0.000000000000000000, -1.000000000000000000 ) ) ;
#273 = CALENDAR_DATE ( 2023, 10, 8 ) ;
#274 = ORIENTED_EDGE ( 'NONE', *, *, #221, .T. ) ;
#275 = PERSON_AND_ORGANIZATION_ROLE ( 'creator' ) ;
#276 = PRODUCT_DEFINITION ( 'UNKNOWN', '', #211, #151 ) ;
#277 = VECTOR ( 'NONE', #26, 1000.000000000000000 ) ;
#278 = FACE_OUTER_BOUND ( 'NONE', #258, .T. ) ;
#279 = CARTESIAN_POINT ( 'NONE',  ( 56.99999999999997158, 52.00000000000002842, 6.500000000000000000 ) ) ;
#280 = PERSON_AND_ORGANIZATION ( #59, #234 ) ;
#281 = FACE_OUTER_BOUND ( 'NONE', #251, .T. ) ;
#282 = CARTESIAN_POINT ( 'NONE',  ( 56.99999999999997158, 52.00000000000000000, 0.000000000000000000 ) ) ;
#283 = LINE ( 'NONE', #361, #277 ) ;
#284 = LINE ( 'NONE', #313, #358 ) ;
#285 = CARTESIAN_POINT ( 'NONE',  ( -56.99999999999997158, 52.00000000000001421, 6.500000000000000000 ) ) ;
#286 = LOCAL_TIME ( 16, 26, 15.00000000000000000, #14 ) ;
#287 = EDGE_LOOP ( 'NONE', ( #321, #118, #101, #357 ) ) ;
#288 = CARTESIAN_POINT ( 'NONE',  ( -56.99999999999997158, 52.00000000000001421, 0.000000000000000000 ) ) ;
#289 = ORIENTED_EDGE ( 'NONE', *, *, #233, .F. ) ;
#290 = CARTESIAN_POINT ( 'NONE',  ( -52.00000000000002842, -57.00000000000000000, 0.000000000000000000 ) ) ;
#291 = ADVANCED_FACE ( 'NONE', ( #113 ), #174, .T. ) ;
#292 = PRODUCT_DEFINITION_SHAPE ( 'NONE', 'NONE',  #276 ) ;
#293 = CC_DESIGN_PERSON_AND_ORGANIZATION_ASSIGNMENT ( #230, #238, ( #276 ) ) ;
#294 = DIRECTION ( 'NONE',  ( 1.000000000000000000, 0.000000000000000000, -0.000000000000000000 ) ) ;
#295 = VECTOR ( 'NONE', #53, 1000.000000000000000 ) ;
#296 = CC_DESIGN_SECURITY_CLASSIFICATION ( #316, ( #211 ) ) ;
#297 = VECTOR ( 'NONE', #24, 1000.000000000000000 ) ;
#298 = PLANE ( 'NONE',  #236 ) ;
#299 = ORIENTED_EDGE ( 'NONE', *, *, #25, .F. ) ;
#300 = DIRECTION ( 'NONE',  ( 0.000000000000000000, 0.000000000000000000, 1.000000000000000000 ) ) ;
#301 = EDGE_LOOP ( 'NONE', ( #208, #144, #58, #205, #50, #15, #164, #250 ) ) ;
#302 = EDGE_CURVE ( 'NONE', #231, #324, #112, .T. ) ;
#303 = EDGE_LOOP ( 'NONE', ( #7, #39, #159, #114 ) ) ;
#304 = AXIS2_PLACEMENT_3D ( 'NONE', #173, #199, #294 ) ;
#305 = DATE_AND_TIME ( #103, #260 ) ;
#306 = CARTESIAN_POINT ( 'NONE',  ( 54.49999999999992184, -54.50000000000007816, 6.500000000000000000 ) ) ;
#307 = DIRECTION ( 'NONE',  ( 0.000000000000000000, 0.000000000000000000, 1.000000000000000000 ) ) ;
#308 = EDGE_CURVE ( 'NONE', #157, #196, #223, .T. ) ;
#309 = PERSON_AND_ORGANIZATION ( #59, #234 ) ;
#310 = CARTESIAN_POINT ( 'NONE',  ( -56.99999999999997158, 52.00000000000001421, 0.000000000000000000 ) ) ;
#311 = EDGE_LOOP ( 'NONE', ( #36, #99, #347, #120 ) ) ;
#312 = VECTOR ( 'NONE', #107, 1000.000000000000000 ) ;
#313 = CARTESIAN_POINT ( 'NONE',  ( 54.50000000000007816, 54.49999999999992895, 6.500000000000000000 ) ) ;
#314 = LINE ( 'NONE', #227, #110 ) ;
#315 = CARTESIAN_POINT ( 'NONE',  ( -51.99999999999997158, 57.00000000000000000, 6.500000000000000000 ) ) ;
#316 = SECURITY_CLASSIFICATION ( '', '', #75 ) ;
#317 = LINE ( 'NONE', #56, #352 ) ;
#318 = ORIENTED_EDGE ( 'NONE', *, *, #63, .F. ) ;
#319 = EDGE_CURVE ( 'NONE', #66, #351, #314, .T. ) ;
#320 = CARTESIAN_POINT ( 'NONE',  ( -52.00000000000002842, -57.00000000000000000, 6.500000000000000000 ) ) ;
#321 = ORIENTED_EDGE ( 'NONE', *, *, #232, .F. ) ;
#322 = CARTESIAN_POINT ( 'NONE',  ( 52.00000000000000000, -56.99999999999998579, 0.000000000000000000 ) ) ;
#323 = VECTOR ( 'NONE', #8, 1000.000000000000000 ) ;
#324 = VERTEX_POINT ( 'NONE', #228 ) ;
#325 = APPLICATION_PROTOCOL_DEFINITION ( 'international standard', 'config_control_design', 1994, #259 ) ;
#326 = MECHANICAL_CONTEXT ( 'NONE', #148, 'mechanical' ) ;
#327 = ORIENTED_EDGE ( 'NONE', *, *, #221, .F. ) ;
#328 = ORIENTED_EDGE ( 'NONE', *, *, #102, .F. ) ;
#329 = EDGE_CURVE ( 'NONE', #231, #351, #152, .T. ) ;
#330 = CALENDAR_DATE ( 2023, 10, 8 ) ;
#331 = CARTESIAN_POINT ( 'NONE',  ( -51.99999999999997158, 57.00000000000000000, 6.500000000000000000 ) ) ;
#332 = DIRECTION ( 'NONE',  ( -1.217349807703022855E-16, 1.000000000000000000, 0.000000000000000000 ) ) ;
#333 = VECTOR ( 'NONE', #119, 1000.000000000000000 ) ;
#334 = EDGE_CURVE ( 'NONE', #239, #324, #265, .T. ) ;
#335 = LINE ( 'NONE', #306, #312 ) ;
#336 = LINE ( 'NONE', #218, #207 ) ;
#337 = DIRECTION ( 'NONE',  ( -1.000000000000000000, -2.434699615406044725E-16, 0.000000000000000000 ) ) ;
#338 = VECTOR ( 'NONE', #307, 1000.000000000000000 ) ;
#339 = DIRECTION ( 'NONE',  ( -1.000000000000000000, -1.217349807703023102E-16, 0.000000000000000000 ) ) ;
#340 = VECTOR ( 'NONE', #346, 1000.000000000000000 ) ;
#341 = CC_DESIGN_PERSON_AND_ORGANIZATION_ASSIGNMENT ( #38, #270, ( #182 ) ) ;
#342 = CARTESIAN_POINT ( 'NONE',  ( 57.00000000000000000, -56.99999999999998579, 6.500000000000000000 ) ) ;
#343 = FACE_OUTER_BOUND ( 'NONE', #94, .T. ) ;
#344 = ADVANCED_FACE ( 'NONE', ( #126 ), #350, .F. ) ;
#345 = DIRECTION ( 'NONE',  ( -0.7071067811865484609, -0.7071067811865465735, -0.000000000000000000 ) ) ;
#346 = DIRECTION ( 'NONE',  ( 0.000000000000000000, 0.000000000000000000, -1.000000000000000000 ) ) ;
#347 = ORIENTED_EDGE ( 'NONE', *, *, #160, .F. ) ;
#348 = CALENDAR_DATE ( 2023, 10, 8 ) ;
#349 = ORIENTED_EDGE ( 'NONE', *, *, #145, .F. ) ;
#350 = PLANE ( 'NONE',  #224 ) ;
#351 = VERTEX_POINT ( 'NONE', #322 ) ;
#352 = VECTOR ( 'NONE', #84, 1000.000000000000000 ) ;
#353 = CARTESIAN_POINT ( 'NONE',  ( 0.000000000000000000, 0.000000000000000000, 0.000000000000000000 ) ) ;
#354 = ORIENTED_EDGE ( 'NONE', *, *, #34, .T. ) ;
#355 = DIRECTION ( 'NONE',  ( 1.000000000000000000, 1.217349807703022855E-16, 0.000000000000000000 ) ) ;
#356 = ADVANCED_FACE ( 'NONE', ( #188 ), #298, .F. ) ;
#357 = ORIENTED_EDGE ( 'NONE', *, *, #187, .F. ) ;
#358 = VECTOR ( 'NONE', #31, 1000.000000000000000 ) ;
#359 = DATE_AND_TIME ( #19, #41 ) ;
#360 = DIRECTION ( 'NONE',  ( 2.434699615406044725E-16, -1.000000000000000000, 0.000000000000000000 ) ) ;
#361 = CARTESIAN_POINT ( 'NONE',  ( 52.00000000000000000, 57.00000000000001421, 0.000000000000000000 ) ) ;
#362 = CARTESIAN_POINT ( 'NONE',  ( 52.00000000000000000, 57.00000000000001421, 0.000000000000000000 ) ) ;
#363 = DATE_AND_TIME ( #330, #269 ) ;
#364 = LINE ( 'NONE', #285, #340 ) ;
#365 = LINE ( 'NONE', #331, #128 ) ;
#366 = EDGE_CURVE ( 'NONE', #243, #30, #65, .T. ) ;
#367 = CC_DESIGN_PERSON_AND_ORGANIZATION_ASSIGNMENT ( #309, #189, ( #316 ) ) ;
#368 = PLANE ( 'NONE',  #225 ) ;
#369 = VECTOR ( 'NONE', #177, 1000.000000000000000 ) ;
ENDSEC;
END-ISO-10303-21;
