ISO-10303-21;
HEADER;
FILE_DESCRIPTION (( 'STEP AP203' ),
    '1' );
FILE_NAME ('FE-460-2-F2.STEP',
    '2023-08-10T07:24:47',
    ( '' ),
    ( '' ),
    'SwSTEP 2.0',
    'SolidWorks 2021',
    '' );
FILE_SCHEMA (( 'CONFIG_CONTROL_DESIGN' ));
ENDSEC;

DATA;
#1 = CARTESIAN_POINT ( 'NONE',  ( 0.000000000000000000, 0.000000000000000000, 0.000000000000000000 ) ) ;
#2 = EDGE_CURVE ( 'NONE', #123, #3, #67, .T. ) ;
#3 = VERTEX_POINT ( 'NONE', #47 ) ;
#4 = PERSON_AND_ORGANIZATION ( #46, #54 ) ;
#5 = ORIENTED_EDGE ( 'NONE', *, *, #168, .T. ) ;
#6 = CC_DESIGN_PERSON_AND_ORGANIZATION_ASSIGNMENT ( #229, #107, ( #105 ) ) ;
#7 = EDGE_LOOP ( 'NONE', ( #137, #217, #233, #222 ) ) ;
#8 = ORIENTED_EDGE ( 'NONE', *, *, #70, .F. ) ;
#9 = DIRECTION ( 'NONE',  ( 1.000000000000000000, 0.000000000000000000, -0.000000000000000000 ) ) ;
#10 = MANIFOLD_SOLID_BREP ( 'ÎÞ½ - µoµ1', #149 ) ;
#11 =( LENGTH_UNIT ( ) NAMED_UNIT ( * ) SI_UNIT ( .MILLI., .METRE. ) );
#12 = EDGE_CURVE ( 'NONE', #40, #20, #103, .T. ) ;
#13 = PERSON_AND_ORGANIZATION ( #46, #54 ) ;
#14 = EDGE_LOOP ( 'NONE', ( #160, #30, #8, #5 ) ) ;
#15 = SECURITY_CLASSIFICATION ( '', '', #41 ) ;
#16 = VECTOR ( 'NONE', #62, 1000.000000000000000 ) ;
#17 = PLANE ( 'NONE',  #167 ) ;
#18 = COORDINATED_UNIVERSAL_TIME_OFFSET ( 9, 0, .AHEAD. ) ;
#19 = ORIENTED_EDGE ( 'NONE', *, *, #2, .T. ) ;
#20 = VERTEX_POINT ( 'NONE', #87 ) ;
#21 = AXIS2_PLACEMENT_3D ( 'NONE', #35, #56, #156 ) ;
#22 = ORIENTED_EDGE ( 'NONE', *, *, #12, .F. ) ;
#23 = EDGE_CURVE ( 'NONE', #219, #40, #224, .T. ) ;
#24 = LINE ( 'NONE', #204, #38 ) ;
#25 = ORIENTED_EDGE ( 'NONE', *, *, #218, .F. ) ;
#26 = ADVANCED_FACE ( 'NONE', ( #115 ), #171, .F. ) ;
#27 =( GEOMETRIC_REPRESENTATION_CONTEXT ( 3 ) GLOBAL_UNCERTAINTY_ASSIGNED_CONTEXT ( ( #133 ) ) GLOBAL_UNIT_ASSIGNED_CONTEXT ( ( #11, #214, #89 ) ) REPRESENTATION_CONTEXT ( 'NONE', 'WORKASPACE' ) );
#28 = APPROVAL ( #94, 'UNSPECIFIED' ) ;
#29 = ORIENTED_EDGE ( 'NONE', *, *, #168, .F. ) ;
#30 = ORIENTED_EDGE ( 'NONE', *, *, #49, .F. ) ;
#31 = APPROVAL_STATUS ( 'not_yet_approved' ) ;
#32 = PRODUCT_RELATED_PRODUCT_CATEGORY ( 'detail', '', ( #105 ) ) ;
#33 = LOCAL_TIME ( 16, 24, 47.00000000000000000, #216 ) ;
#34 = LOCAL_TIME ( 16, 24, 47.00000000000000000, #143 ) ;
#35 = CARTESIAN_POINT ( 'NONE',  ( 0.000000000000000000, 0.000000000000000000, 0.000000000000000000 ) ) ;
#36 = DIRECTION ( 'NONE',  ( 0.000000000000000000, -1.000000000000000000, 0.000000000000000000 ) ) ;
#37 = CARTESIAN_POINT ( 'NONE',  ( -55.99999999999997158, -56.00000000000000711, 5.000000000000000000 ) ) ;
#38 = VECTOR ( 'NONE', #164, 1000.000000000000000 ) ;
#39 = APPROVAL_ROLE ( '' ) ;
#40 = VERTEX_POINT ( 'NONE', #130 ) ;
#41 = SECURITY_CLASSIFICATION_LEVEL ( 'unclassified' ) ;
#42 = DIRECTION ( 'NONE',  ( -1.000000000000000000, -2.478176394252581141E-16, 0.000000000000000000 ) ) ;
#43 = APPROVAL_DATE_TIME ( #126, #28 ) ;
#44 = PLANE ( 'NONE',  #102 ) ;
#45 = DIRECTION ( 'NONE',  ( -2.478176394252581141E-16, 1.000000000000000000, 0.000000000000000000 ) ) ;
#46 = PERSON ( 'UNSPECIFIED', 'UNSPECIFIED', 'UNSPECIFIED', ('UNSPECIFIED'), ('UNSPECIFIED'), ('UNSPECIFIED') ) ;
#47 = CARTESIAN_POINT ( 'NONE',  ( -55.99999999999997158, -56.00000000000000711, 0.000000000000000000 ) ) ;
#48 = VECTOR ( 'NONE', #45, 1000.000000000000000 ) ;
#49 = EDGE_CURVE ( 'NONE', #219, #144, #88, .T. ) ;
#50 = CARTESIAN_POINT ( 'NONE',  ( 56.00000000000000000, -55.99999999999999289, 5.000000000000000000 ) ) ;
#51 = APPLICATION_PROTOCOL_DEFINITION ( 'international standard', 'config_control_design', 1994, #127 ) ;
#52 = DATE_AND_TIME ( #71, #182 ) ;
#53 = CARTESIAN_POINT ( 'NONE',  ( -55.99999999999997158, 56.00000000000001421, 5.000000000000000000 ) ) ;
#54 = ORGANIZATION ( 'UNSPECIFIED', 'UNSPECIFIED', '' ) ;
#55 = CARTESIAN_POINT ( 'NONE',  ( 55.99999999999997158, 56.00000000000002842, 0.000000000000000000 ) ) ;
#56 = DIRECTION ( 'NONE',  ( 0.000000000000000000, 0.000000000000000000, 1.000000000000000000 ) ) ;
#57 = ORIENTED_EDGE ( 'NONE', *, *, #151, .F. ) ;
#58 = ORIENTED_EDGE ( 'NONE', *, *, #151, .T. ) ;
#59 = APPROVAL_PERSON_ORGANIZATION ( #184, #165, #180 ) ;
#60 = APPROVAL_STATUS ( 'not_yet_approved' ) ;
#61 = EDGE_LOOP ( 'NONE', ( #181, #57, #22, #93 ) ) ;
#62 = DIRECTION ( 'NONE',  ( 1.000000000000000000, 1.239088197126291063E-16, 0.000000000000000000 ) ) ;
#63 = VECTOR ( 'NONE', #148, 1000.000000000000000 ) ;
#64 = CARTESIAN_POINT ( 'NONE',  ( -55.99999999999997158, -56.00000000000000711, 5.000000000000000000 ) ) ;
#65 = CARTESIAN_POINT ( 'NONE',  ( 56.00000000000000000, -55.99999999999999289, 5.000000000000000000 ) ) ;
#66 = ADVANCED_FACE ( 'NONE', ( #95 ), #44, .F. ) ;
#67 = LINE ( 'NONE', #147, #189 ) ;
#68 = DIRECTION ( 'NONE',  ( -1.000000000000000000, -1.239088197126291310E-16, 0.000000000000000000 ) ) ;
#69 = VECTOR ( 'NONE', #178, 1000.000000000000000 ) ;
#70 = EDGE_CURVE ( 'NONE', #177, #219, #116, .T. ) ;
#71 = CALENDAR_DATE ( 2023, 10, 8 ) ;
#72 = PRODUCT_DEFINITION_SHAPE ( 'NONE', 'NONE',  #201 ) ;
#73 = CARTESIAN_POINT ( 'NONE',  ( -55.99999999999997158, -56.00000000000000711, 5.000000000000000000 ) ) ;
#74 = LINE ( 'NONE', #73, #138 ) ;
#75 = CC_DESIGN_DATE_AND_TIME_ASSIGNMENT ( #200, #161, ( #201 ) ) ;
#76 = CARTESIAN_POINT ( 'NONE',  ( -55.99999999999997158, -56.00000000000000711, 0.000000000000000000 ) ) ;
#77 = VERTEX_POINT ( 'NONE', #170 ) ;
#78 = ORIENTED_EDGE ( 'NONE', *, *, #23, .F. ) ;
#79 = PERSON_AND_ORGANIZATION ( #46, #54 ) ;
#80 = CC_DESIGN_PERSON_AND_ORGANIZATION_ASSIGNMENT ( #146, #235, ( #236 ) ) ;
#81 = AXIS2_PLACEMENT_3D ( 'NONE', #195, #175, #121 ) ;
#82 = CALENDAR_DATE ( 2023, 10, 8 ) ;
#83 = CARTESIAN_POINT ( 'NONE',  ( 56.00000000000000000, -55.99999999999999289, 5.000000000000000000 ) ) ;
#84 = FACE_OUTER_BOUND ( 'NONE', #14, .T. ) ;
#85 = VECTOR ( 'NONE', #68, 1000.000000000000000 ) ;
#86 = DIRECTION ( 'NONE',  ( -1.000000000000000000, -1.239088197126291063E-16, 0.000000000000000000 ) ) ;
#87 = CARTESIAN_POINT ( 'NONE',  ( -55.99999999999997158, 56.00000000000001421, 5.000000000000000000 ) ) ;
#88 = LINE ( 'NONE', #83, #63 ) ;
#89 =( NAMED_UNIT ( * ) SI_UNIT ( $, .STERADIAN. ) SOLID_ANGLE_UNIT ( ) );
#90 = FACE_OUTER_BOUND ( 'NONE', #61, .T. ) ;
#91 = ADVANCED_FACE ( 'NONE', ( #98 ), #188, .F. ) ;
#92 = ORIENTED_EDGE ( 'NONE', *, *, #96, .F. ) ;
#93 = ORIENTED_EDGE ( 'NONE', *, *, #96, .T. ) ;
#94 = APPROVAL_STATUS ( 'not_yet_approved' ) ;
#95 = FACE_OUTER_BOUND ( 'NONE', #108, .T. ) ;
#96 = EDGE_CURVE ( 'NONE', #40, #77, #225, .T. ) ;
#97 = DATE_AND_TIME ( #82, #187 ) ;
#98 = FACE_OUTER_BOUND ( 'NONE', #215, .T. ) ;
#99 = ORIENTED_EDGE ( 'NONE', *, *, #2, .F. ) ;
#100 = AXIS2_PLACEMENT_3D ( 'NONE', #1, #129, #203 ) ;
#101 = PLANE ( 'NONE',  #227 ) ;
#102 = AXIS2_PLACEMENT_3D ( 'NONE', #163, #153, #226 ) ;
#103 = LINE ( 'NONE', #117, #85 ) ;
#104 = APPLICATION_PROTOCOL_DEFINITION ( 'international standard', 'config_control_design', 1994, #154 ) ;
#105 = PRODUCT ( 'FE-460-2-F2', 'FE-460-2-F2', '', ( #158 ) ) ;
#106 = LOCAL_TIME ( 16, 24, 47.00000000000000000, #209 ) ;
#107 = PERSON_AND_ORGANIZATION_ROLE ( 'design_owner' ) ;
#108 = EDGE_LOOP ( 'NONE', ( #19, #29, #199, #58 ) ) ;
#109 = LINE ( 'NONE', #55, #198 ) ;
#110 = VECTOR ( 'NONE', #166, 1000.000000000000000 ) ;
#111 = PERSON_AND_ORGANIZATION ( #46, #54 ) ;
#112 = DATE_TIME_ROLE ( 'classification_date' ) ;
#113 = DIRECTION ( 'NONE',  ( 0.000000000000000000, -1.000000000000000000, 0.000000000000000000 ) ) ;
#114 = CC_DESIGN_APPROVAL ( #165, ( #15 ) ) ;
#115 = FACE_OUTER_BOUND ( 'NONE', #205, .T. ) ;
#116 = LINE ( 'NONE', #131, #16 ) ;
#117 = CARTESIAN_POINT ( 'NONE',  ( 55.99999999999997158, 56.00000000000002842, 5.000000000000000000 ) ) ;
#118 = CC_DESIGN_PERSON_AND_ORGANIZATION_ASSIGNMENT ( #13, #139, ( #201 ) ) ;
#119 = ORIENTED_EDGE ( 'NONE', *, *, #49, .T. ) ;
#120 = APPROVAL_ROLE ( '' ) ;
#121 = DIRECTION ( 'NONE',  ( 1.000000000000000000, 1.239088197126291310E-16, 0.000000000000000000 ) ) ;
#122 = DIRECTION ( 'NONE',  ( -1.000000000000000000, -1.239088197126291310E-16, 0.000000000000000000 ) ) ;
#123 = VERTEX_POINT ( 'NONE', #223 ) ;
#124 = CC_DESIGN_PERSON_AND_ORGANIZATION_ASSIGNMENT ( #79, #202, ( #15 ) ) ;
#125 = CALENDAR_DATE ( 2023, 10, 8 ) ;
#126 = DATE_AND_TIME ( #234, #34 ) ;
#127 = APPLICATION_CONTEXT ( 'configuration controlled 3d designs of mechanical parts and assemblies' ) ;
#128 = ADVANCED_BREP_SHAPE_REPRESENTATION ( 'FE-460-2-F2', ( #10, #21 ), #27 ) ;
#129 = DIRECTION ( 'NONE',  ( 0.000000000000000000, -0.000000000000000000, 1.000000000000000000 ) ) ;
#130 = CARTESIAN_POINT ( 'NONE',  ( 55.99999999999997158, 56.00000000000002842, 5.000000000000000000 ) ) ;
#131 = CARTESIAN_POINT ( 'NONE',  ( -55.99999999999997158, -56.00000000000000711, 5.000000000000000000 ) ) ;
#132 = EDGE_CURVE ( 'NONE', #144, #77, #24, .T. ) ;
#133 = UNCERTAINTY_MEASURE_WITH_UNIT (LENGTH_MEASURE( 1.000000000000000082E-05 ), #11, 'distance_accuracy_value', 'NONE');
#134 = APPROVAL_PERSON_ORGANIZATION ( #4, #28, #39 ) ;
#135 = ADVANCED_FACE ( 'NONE', ( #84 ), #101, .F. ) ;
#136 = CARTESIAN_POINT ( 'NONE',  ( 56.00000000000000000, -55.99999999999999289, 0.000000000000000000 ) ) ;
#137 = ORIENTED_EDGE ( 'NONE', *, *, #70, .T. ) ;
#138 = VECTOR ( 'NONE', #212, 1000.000000000000000 ) ;
#139 = PERSON_AND_ORGANIZATION_ROLE ( 'creator' ) ;
#140 = APPROVAL_DATE_TIME ( #52, #157 ) ;
#141 = CALENDAR_DATE ( 2023, 10, 8 ) ;
#142 = PLANE ( 'NONE',  #81 ) ;
#143 = COORDINATED_UNIVERSAL_TIME_OFFSET ( 9, 0, .AHEAD. ) ;
#144 = VERTEX_POINT ( 'NONE', #136 ) ;
#145 = APPROVAL_DATE_TIME ( #97, #165 ) ;
#146 = PERSON_AND_ORGANIZATION ( #46, #54 ) ;
#147 = CARTESIAN_POINT ( 'NONE',  ( -55.99999999999997158, 56.00000000000001421, 0.000000000000000000 ) ) ;
#148 = DIRECTION ( 'NONE',  ( -0.000000000000000000, -0.000000000000000000, -1.000000000000000000 ) ) ;
#149 = CLOSED_SHELL ( 'NONE', ( #135, #26, #231, #66, #190, #91 ) ) ;
#150 = LINE ( 'NONE', #207, #162 ) ;
#151 = EDGE_CURVE ( 'NONE', #20, #123, #150, .T. ) ;
#152 = ORIENTED_EDGE ( 'NONE', *, *, #132, .T. ) ;
#153 = DIRECTION ( 'NONE',  ( 1.000000000000000000, 0.000000000000000000, -0.000000000000000000 ) ) ;
#154 = APPLICATION_CONTEXT ( 'configuration controlled 3d designs of mechanical parts and assemblies' ) ;
#155 = VECTOR ( 'NONE', #36, 1000.000000000000000 ) ;
#156 = DIRECTION ( 'NONE',  ( 1.000000000000000000, 0.000000000000000000, 0.000000000000000000 ) ) ;
#157 = APPROVAL ( #31, 'UNSPECIFIED' ) ;
#158 = MECHANICAL_CONTEXT ( 'NONE', #154, 'mechanical' ) ;
#159 = DIRECTION ( 'NONE',  ( -0.000000000000000000, -0.000000000000000000, -1.000000000000000000 ) ) ;
#160 = ORIENTED_EDGE ( 'NONE', *, *, #208, .T. ) ;
#161 = DATE_TIME_ROLE ( 'creation_date' ) ;
#162 = VECTOR ( 'NONE', #159, 1000.000000000000000 ) ;
#163 = CARTESIAN_POINT ( 'NONE',  ( -55.99999999999997158, 56.00000000000001421, 5.000000000000000000 ) ) ;
#164 = DIRECTION ( 'NONE',  ( -2.478176394252581141E-16, 1.000000000000000000, 0.000000000000000000 ) ) ;
#165 = APPROVAL ( #60, 'UNSPECIFIED' ) ;
#166 = DIRECTION ( 'NONE',  ( -0.000000000000000000, -0.000000000000000000, -1.000000000000000000 ) ) ;
#167 = AXIS2_PLACEMENT_3D ( 'NONE', #172, #194, #9 ) ;
#168 = EDGE_CURVE ( 'NONE', #177, #3, #74, .T. ) ;
#169 = AXIS2_PLACEMENT_3D ( 'NONE', #65, #42, #191 ) ;
#170 = CARTESIAN_POINT ( 'NONE',  ( 55.99999999999997158, 56.00000000000002842, 0.000000000000000000 ) ) ;
#171 = PLANE ( 'NONE',  #169 ) ;
#172 = CARTESIAN_POINT ( 'NONE',  ( 0.000000000000000000, 0.000000000000000000, 5.000000000000000000 ) ) ;
#173 = APPROVAL_PERSON_ORGANIZATION ( #192, #157, #120 ) ;
#174 = FACE_OUTER_BOUND ( 'NONE', #7, .T. ) ;
#175 = DIRECTION ( 'NONE',  ( 1.239088197126291310E-16, -1.000000000000000000, 0.000000000000000000 ) ) ;
#176 = CC_DESIGN_DATE_AND_TIME_ASSIGNMENT ( #197, #112, ( #15 ) ) ;
#177 = VERTEX_POINT ( 'NONE', #37 ) ;
#178 = DIRECTION ( 'NONE',  ( 1.000000000000000000, 1.239088197126291063E-16, 0.000000000000000000 ) ) ;
#179 = ORIENTED_EDGE ( 'NONE', *, *, #132, .F. ) ;
#180 = APPROVAL_ROLE ( '' ) ;
#181 = ORIENTED_EDGE ( 'NONE', *, *, #218, .T. ) ;
#182 = LOCAL_TIME ( 16, 24, 47.00000000000000000, #228 ) ;
#183 = ORIENTED_EDGE ( 'NONE', *, *, #208, .F. ) ;
#184 = PERSON_AND_ORGANIZATION ( #46, #54 ) ;
#185 = CARTESIAN_POINT ( 'NONE',  ( 55.99999999999997158, 56.00000000000002842, 5.000000000000000000 ) ) ;
#186 = DIRECTION ( 'NONE',  ( -1.239088197126291063E-16, 1.000000000000000000, 0.000000000000000000 ) ) ;
#187 = LOCAL_TIME ( 16, 24, 47.00000000000000000, #18 ) ;
#188 = PLANE ( 'NONE',  #100 ) ;
#189 = VECTOR ( 'NONE', #113, 1000.000000000000000 ) ;
#190 = ADVANCED_FACE ( 'NONE', ( #174 ), #17, .T. ) ;
#191 = DIRECTION ( 'NONE',  ( 2.478176394252581141E-16, -1.000000000000000000, 0.000000000000000000 ) ) ;
#192 = PERSON_AND_ORGANIZATION ( #46, #54 ) ;
#193 = CARTESIAN_POINT ( 'NONE',  ( 56.00000000000000000, -55.99999999999999289, 5.000000000000000000 ) ) ;
#194 = DIRECTION ( 'NONE',  ( 0.000000000000000000, -0.000000000000000000, 1.000000000000000000 ) ) ;
#195 = CARTESIAN_POINT ( 'NONE',  ( 55.99999999999997158, 56.00000000000002842, 5.000000000000000000 ) ) ;
#196 = CC_DESIGN_SECURITY_CLASSIFICATION ( #15, ( #236 ) ) ;
#197 = DATE_AND_TIME ( #125, #33 ) ;
#198 = VECTOR ( 'NONE', #122, 1000.000000000000000 ) ;
#199 = ORIENTED_EDGE ( 'NONE', *, *, #213, .F. ) ;
#200 = DATE_AND_TIME ( #141, #106 ) ;
#201 = PRODUCT_DEFINITION ( 'UNKNOWN', '', #236, #230 ) ;
#202 = PERSON_AND_ORGANIZATION_ROLE ( 'classification_officer' ) ;
#203 = DIRECTION ( 'NONE',  ( 1.000000000000000000, 0.000000000000000000, -0.000000000000000000 ) ) ;
#204 = CARTESIAN_POINT ( 'NONE',  ( 56.00000000000000000, -55.99999999999999289, 0.000000000000000000 ) ) ;
#205 = EDGE_LOOP ( 'NONE', ( #152, #92, #78, #119 ) ) ;
#206 = CC_DESIGN_APPROVAL ( #157, ( #201 ) ) ;
#207 = CARTESIAN_POINT ( 'NONE',  ( -55.99999999999997158, 56.00000000000001421, 5.000000000000000000 ) ) ;
#208 = EDGE_CURVE ( 'NONE', #3, #144, #210, .T. ) ;
#209 = COORDINATED_UNIVERSAL_TIME_OFFSET ( 9, 0, .AHEAD. ) ;
#210 = LINE ( 'NONE', #76, #69 ) ;
#211 = CC_DESIGN_APPROVAL ( #28, ( #236 ) ) ;
#212 = DIRECTION ( 'NONE',  ( -0.000000000000000000, -0.000000000000000000, -1.000000000000000000 ) ) ;
#213 = EDGE_CURVE ( 'NONE', #20, #177, #232, .T. ) ;
#214 =( NAMED_UNIT ( * ) PLANE_ANGLE_UNIT ( ) SI_UNIT ( $, .RADIAN. ) );
#215 = EDGE_LOOP ( 'NONE', ( #183, #99, #25, #179 ) ) ;
#216 = COORDINATED_UNIVERSAL_TIME_OFFSET ( 9, 0, .AHEAD. ) ;
#217 = ORIENTED_EDGE ( 'NONE', *, *, #23, .T. ) ;
#218 = EDGE_CURVE ( 'NONE', #77, #123, #109, .T. ) ;
#219 = VERTEX_POINT ( 'NONE', #193 ) ;
#220 = PERSON_AND_ORGANIZATION_ROLE ( 'creator' ) ;
#221 = CC_DESIGN_PERSON_AND_ORGANIZATION_ASSIGNMENT ( #111, #220, ( #236 ) ) ;
#222 = ORIENTED_EDGE ( 'NONE', *, *, #213, .T. ) ;
#223 = CARTESIAN_POINT ( 'NONE',  ( -55.99999999999997158, 56.00000000000001421, 0.000000000000000000 ) ) ;
#224 = LINE ( 'NONE', #50, #48 ) ;
#225 = LINE ( 'NONE', #185, #110 ) ;
#226 = DIRECTION ( 'NONE',  ( -0.000000000000000000, 0.000000000000000000, -1.000000000000000000 ) ) ;
#227 = AXIS2_PLACEMENT_3D ( 'NONE', #64, #186, #86 ) ;
#228 = COORDINATED_UNIVERSAL_TIME_OFFSET ( 9, 0, .AHEAD. ) ;
#229 = PERSON_AND_ORGANIZATION ( #46, #54 ) ;
#230 = DESIGN_CONTEXT ( 'detailed design', #127, 'design' ) ;
#231 = ADVANCED_FACE ( 'NONE', ( #90 ), #142, .F. ) ;
#232 = LINE ( 'NONE', #53, #155 ) ;
#233 = ORIENTED_EDGE ( 'NONE', *, *, #12, .T. ) ;
#234 = CALENDAR_DATE ( 2023, 10, 8 ) ;
#235 = PERSON_AND_ORGANIZATION_ROLE ( 'design_supplier' ) ;
#236 = PRODUCT_DEFINITION_FORMATION_WITH_SPECIFIED_SOURCE ( 'ANY', '', #105, .NOT_KNOWN. ) ;
#237 = SHAPE_DEFINITION_REPRESENTATION ( #72, #128 ) ;
ENDSEC;
END-ISO-10303-21;
