ISO-10303-21;
HEADER;
FILE_DESCRIPTION (( 'STEP AP203' ),
    '1' );
FILE_NAME ('FE-460-2-F1.STEP',
    '2023-08-10T07:24:00',
    ( '' ),
    ( '' ),
    'SwSTEP 2.0',
    'SolidWorks 2021',
    '' );
FILE_SCHEMA (( 'CONFIG_CONTROL_DESIGN' ));
ENDSEC;

DATA;
#1 = VERTEX_POINT ( 'NONE', #6 ) ;
#2 = DATE_AND_TIME ( #24, #17 ) ;
#3 = APPROVAL ( #62, 'UNSPECIFIED' ) ;
#4 = APPROVAL_DATE_TIME ( #92, #214 ) ;
#5 = CC_DESIGN_APPROVAL ( #3, ( #116 ) ) ;
#6 = CARTESIAN_POINT ( 'NONE',  ( 56.00000000000000000, -55.99999999999999289, 5.000000000000000000 ) ) ;
#7 = PERSON_AND_ORGANIZATION_ROLE ( 'creator' ) ;
#8 = PLANE ( 'NONE',  #16 ) ;
#9 = PERSON_AND_ORGANIZATION ( #147, #183 ) ;
#10 = PLANE ( 'NONE',  #95 ) ;
#11 = APPROVAL_ROLE ( '' ) ;
#12 = CARTESIAN_POINT ( 'NONE',  ( -55.99999999999997158, 56.00000000000001421, 5.000000000000000000 ) ) ;
#13 = ORIENTED_EDGE ( 'NONE', *, *, #203, .F. ) ;
#14 = CARTESIAN_POINT ( 'NONE',  ( 55.99999999999997158, 56.00000000000002842, 5.000000000000000000 ) ) ;
#15 = EDGE_CURVE ( 'NONE', #73, #29, #59, .T. ) ;
#16 = AXIS2_PLACEMENT_3D ( 'NONE', #93, #131, #99 ) ;
#17 = LOCAL_TIME ( 16, 24, 0.000000000000000000, #188 ) ;
#18 =( NAMED_UNIT ( * ) PLANE_ANGLE_UNIT ( ) SI_UNIT ( $, .RADIAN. ) );
#19 =( GEOMETRIC_REPRESENTATION_CONTEXT ( 3 ) GLOBAL_UNCERTAINTY_ASSIGNED_CONTEXT ( ( #166 ) ) GLOBAL_UNIT_ASSIGNED_CONTEXT ( ( #89, #18, #43 ) ) REPRESENTATION_CONTEXT ( 'NONE', 'WORKASPACE' ) );
#20 = VERTEX_POINT ( 'NONE', #30 ) ;
#21 = ORIENTED_EDGE ( 'NONE', *, *, #15, .F. ) ;
#22 = CARTESIAN_POINT ( 'NONE',  ( 0.000000000000000000, 0.000000000000000000, 0.000000000000000000 ) ) ;
#23 = ORIENTED_EDGE ( 'NONE', *, *, #179, .F. ) ;
#24 = CALENDAR_DATE ( 2023, 10, 8 ) ;
#25 = DIRECTION ( 'NONE',  ( -0.000000000000000000, -0.000000000000000000, -1.000000000000000000 ) ) ;
#26 = EDGE_CURVE ( 'NONE', #104, #192, #83, .T. ) ;
#27 = DIRECTION ( 'NONE',  ( 0.000000000000000000, -1.000000000000000000, 0.000000000000000000 ) ) ;
#28 = DATE_AND_TIME ( #191, #88 ) ;
#29 = VERTEX_POINT ( 'NONE', #205 ) ;
#30 = CARTESIAN_POINT ( 'NONE',  ( 55.99999999999997158, 56.00000000000002842, 5.000000000000000000 ) ) ;
#31 = LINE ( 'NONE', #121, #44 ) ;
#32 = DIRECTION ( 'NONE',  ( 1.239088197126291310E-16, -1.000000000000000000, 0.000000000000000000 ) ) ;
#33 = CARTESIAN_POINT ( 'NONE',  ( 55.99999999999997158, 56.00000000000002842, 0.000000000000000000 ) ) ;
#34 = EDGE_CURVE ( 'NONE', #1, #20, #112, .T. ) ;
#35 = VECTOR ( 'NONE', #180, 1000.000000000000000 ) ;
#36 = APPROVAL ( #130, 'UNSPECIFIED' ) ;
#37 = LOCAL_TIME ( 16, 24, 0.000000000000000000, #106 ) ;
#38 = ORIENTED_EDGE ( 'NONE', *, *, #101, .T. ) ;
#39 = VECTOR ( 'NONE', #25, 1000.000000000000000 ) ;
#40 = CARTESIAN_POINT ( 'NONE',  ( 56.00000000000000000, -55.99999999999999289, 5.000000000000000000 ) ) ;
#41 = COORDINATED_UNIVERSAL_TIME_OFFSET ( 9, 0, .AHEAD. ) ;
#42 = ORIENTED_EDGE ( 'NONE', *, *, #68, .T. ) ;
#43 =( NAMED_UNIT ( * ) SI_UNIT ( $, .STERADIAN. ) SOLID_ANGLE_UNIT ( ) );
#44 = VECTOR ( 'NONE', #87, 1000.000000000000000 ) ;
#45 = FACE_OUTER_BOUND ( 'NONE', #52, .T. ) ;
#46 = APPROVAL_DATE_TIME ( #132, #3 ) ;
#47 = PLANE ( 'NONE',  #146 ) ;
#48 = DIRECTION ( 'NONE',  ( 1.000000000000000000, 0.000000000000000000, -0.000000000000000000 ) ) ;
#49 = DIRECTION ( 'NONE',  ( 1.000000000000000000, 1.239088197126291310E-16, 0.000000000000000000 ) ) ;
#50 = CARTESIAN_POINT ( 'NONE',  ( 55.99999999999997158, 56.00000000000002842, 5.000000000000000000 ) ) ;
#51 = DIRECTION ( 'NONE',  ( 1.000000000000000000, 0.000000000000000000, -0.000000000000000000 ) ) ;
#52 = EDGE_LOOP ( 'NONE', ( #187, #152, #13, #168 ) ) ;
#53 = EDGE_LOOP ( 'NONE', ( #221, #21, #160, #42 ) ) ;
#54 = DIRECTION ( 'NONE',  ( 0.000000000000000000, 0.000000000000000000, 1.000000000000000000 ) ) ;
#55 = PRODUCT_DEFINITION_FORMATION_WITH_SPECIFIED_SOURCE ( 'ANY', '', #184, .NOT_KNOWN. ) ;
#56 = ORIENTED_EDGE ( 'NONE', *, *, #226, .T. ) ;
#57 = CC_DESIGN_PERSON_AND_ORGANIZATION_ASSIGNMENT ( #204, #7, ( #55 ) ) ;
#58 = APPLICATION_PROTOCOL_DEFINITION ( 'international standard', 'config_control_design', 1994, #71 ) ;
#59 = LINE ( 'NONE', #190, #39 ) ;
#60 = CALENDAR_DATE ( 2023, 10, 8 ) ;
#61 = VERTEX_POINT ( 'NONE', #12 ) ;
#62 = APPROVAL_STATUS ( 'not_yet_approved' ) ;
#63 = DIRECTION ( 'NONE',  ( 0.000000000000000000, -0.000000000000000000, 1.000000000000000000 ) ) ;
#64 = LINE ( 'NONE', #114, #237 ) ;
#65 = ADVANCED_FACE ( 'NONE', ( #173 ), #8, .F. ) ;
#66 = CARTESIAN_POINT ( 'NONE',  ( -55.99999999999997158, 56.00000000000001421, 0.000000000000000000 ) ) ;
#67 = APPROVAL_PERSON_ORGANIZATION ( #151, #36, #78 ) ;
#68 = EDGE_CURVE ( 'NONE', #61, #148, #82, .T. ) ;
#69 = CARTESIAN_POINT ( 'NONE',  ( -55.99999999999997158, -56.00000000000000711, 5.000000000000000000 ) ) ;
#70 = LOCAL_TIME ( 16, 24, 0.000000000000000000, #41 ) ;
#71 = APPLICATION_CONTEXT ( 'configuration controlled 3d designs of mechanical parts and assemblies' ) ;
#72 = EDGE_CURVE ( 'NONE', #61, #73, #64, .T. ) ;
#73 = VERTEX_POINT ( 'NONE', #138 ) ;
#74 = PERSON_AND_ORGANIZATION_ROLE ( 'design_supplier' ) ;
#75 = PRODUCT_DEFINITION ( 'UNKNOWN', '', #55, #144 ) ;
#76 = APPROVAL_PERSON_ORGANIZATION ( #94, #3, #229 ) ;
#77 = ORIENTED_EDGE ( 'NONE', *, *, #203, .T. ) ;
#78 = APPROVAL_ROLE ( '' ) ;
#79 = CARTESIAN_POINT ( 'NONE',  ( -55.99999999999997158, -56.00000000000000711, 0.000000000000000000 ) ) ;
#80 = CALENDAR_DATE ( 2023, 10, 8 ) ;
#81 = FACE_OUTER_BOUND ( 'NONE', #108, .T. ) ;
#82 = LINE ( 'NONE', #228, #35 ) ;
#83 = LINE ( 'NONE', #129, #195 ) ;
#84 = LINE ( 'NONE', #33, #232 ) ;
#85 = DIRECTION ( 'NONE',  ( 1.000000000000000000, 1.239088197126291063E-16, 0.000000000000000000 ) ) ;
#86 = CC_DESIGN_DATE_AND_TIME_ASSIGNMENT ( #156, #185, ( #75 ) ) ;
#87 = DIRECTION ( 'NONE',  ( -0.000000000000000000, -0.000000000000000000, -1.000000000000000000 ) ) ;
#88 = LOCAL_TIME ( 16, 24, 0.000000000000000000, #227 ) ;
#89 =( LENGTH_UNIT ( ) NAMED_UNIT ( * ) SI_UNIT ( .MILLI., .METRE. ) );
#90 = ORIENTED_EDGE ( 'NONE', *, *, #193, .T. ) ;
#91 = ORIENTED_EDGE ( 'NONE', *, *, #26, .T. ) ;
#92 = DATE_AND_TIME ( #80, #37 ) ;
#93 = CARTESIAN_POINT ( 'NONE',  ( 56.00000000000000000, -55.99999999999999289, 5.000000000000000000 ) ) ;
#94 = PERSON_AND_ORGANIZATION ( #147, #183 ) ;
#95 = AXIS2_PLACEMENT_3D ( 'NONE', #98, #212, #48 ) ;
#96 = DIRECTION ( 'NONE',  ( -2.478176394252581141E-16, 1.000000000000000000, 0.000000000000000000 ) ) ;
#97 = DIRECTION ( 'NONE',  ( 1.000000000000000000, 0.000000000000000000, 0.000000000000000000 ) ) ;
#98 = CARTESIAN_POINT ( 'NONE',  ( 0.000000000000000000, 0.000000000000000000, 0.000000000000000000 ) ) ;
#99 = DIRECTION ( 'NONE',  ( 2.478176394252581141E-16, -1.000000000000000000, 0.000000000000000000 ) ) ;
#100 = EDGE_LOOP ( 'NONE', ( #77, #110, #201, #56 ) ) ;
#101 = EDGE_CURVE ( 'NONE', #29, #104, #175, .T. ) ;
#102 = FACE_OUTER_BOUND ( 'NONE', #161, .T. ) ;
#103 = LINE ( 'NONE', #14, #199 ) ;
#104 = VERTEX_POINT ( 'NONE', #194 ) ;
#105 = ORIENTED_EDGE ( 'NONE', *, *, #34, .F. ) ;
#106 = COORDINATED_UNIVERSAL_TIME_OFFSET ( 9, 0, .AHEAD. ) ;
#107 = MECHANICAL_CONTEXT ( 'NONE', #222, 'mechanical' ) ;
#108 = EDGE_LOOP ( 'NONE', ( #177, #170, #90, #189 ) ) ;
#109 = PERSON_AND_ORGANIZATION ( #147, #183 ) ;
#110 = ORIENTED_EDGE ( 'NONE', *, *, #68, .F. ) ;
#111 = DATE_TIME_ROLE ( 'classification_date' ) ;
#112 = LINE ( 'NONE', #40, #135 ) ;
#113 = SHAPE_DEFINITION_REPRESENTATION ( #149, #136 ) ;
#114 = CARTESIAN_POINT ( 'NONE',  ( -55.99999999999997158, 56.00000000000001421, 5.000000000000000000 ) ) ;
#115 = CARTESIAN_POINT ( 'NONE',  ( -55.99999999999997158, 56.00000000000001421, 5.000000000000000000 ) ) ;
#116 = SECURITY_CLASSIFICATION ( '', '', #235 ) ;
#117 = DIRECTION ( 'NONE',  ( -1.239088197126291063E-16, 1.000000000000000000, 0.000000000000000000 ) ) ;
#118 = DIRECTION ( 'NONE',  ( -0.000000000000000000, -0.000000000000000000, -1.000000000000000000 ) ) ;
#119 = VECTOR ( 'NONE', #118, 1000.000000000000000 ) ;
#120 = EDGE_CURVE ( 'NONE', #148, #29, #230, .T. ) ;
#121 = CARTESIAN_POINT ( 'NONE',  ( 56.00000000000000000, -55.99999999999999289, 5.000000000000000000 ) ) ;
#122 = ORIENTED_EDGE ( 'NONE', *, *, #145, .F. ) ;
#123 = PRODUCT_RELATED_PRODUCT_CATEGORY ( 'detail', '', ( #184 ) ) ;
#124 = AXIS2_PLACEMENT_3D ( 'NONE', #231, #63, #137 ) ;
#125 = ORIENTED_EDGE ( 'NONE', *, *, #15, .T. ) ;
#126 = ADVANCED_FACE ( 'NONE', ( #45 ), #10, .F. ) ;
#127 = AXIS2_PLACEMENT_3D ( 'NONE', #22, #54, #97 ) ;
#128 = PERSON_AND_ORGANIZATION_ROLE ( 'creator' ) ;
#129 = CARTESIAN_POINT ( 'NONE',  ( 56.00000000000000000, -55.99999999999999289, 0.000000000000000000 ) ) ;
#130 = APPROVAL_STATUS ( 'not_yet_approved' ) ;
#131 = DIRECTION ( 'NONE',  ( -1.000000000000000000, -2.478176394252581141E-16, 0.000000000000000000 ) ) ;
#132 = DATE_AND_TIME ( #60, #213 ) ;
#133 = ADVANCED_FACE ( 'NONE', ( #81 ), #157, .T. ) ;
#134 = CARTESIAN_POINT ( 'NONE',  ( -55.99999999999997158, 56.00000000000001421, 0.000000000000000000 ) ) ;
#135 = VECTOR ( 'NONE', #233, 1000.000000000000000 ) ;
#136 = ADVANCED_BREP_SHAPE_REPRESENTATION ( 'FE-460-2-F1', ( #219, #127 ), #19 ) ;
#137 = DIRECTION ( 'NONE',  ( 1.000000000000000000, 0.000000000000000000, -0.000000000000000000 ) ) ;
#138 = CARTESIAN_POINT ( 'NONE',  ( -55.99999999999997158, -56.00000000000000711, 5.000000000000000000 ) ) ;
#139 = FACE_OUTER_BOUND ( 'NONE', #100, .T. ) ;
#140 = ADVANCED_FACE ( 'NONE', ( #211 ), #47, .F. ) ;
#141 = CC_DESIGN_SECURITY_CLASSIFICATION ( #116, ( #55 ) ) ;
#142 = DIRECTION ( 'NONE',  ( -1.000000000000000000, -1.239088197126291310E-16, 0.000000000000000000 ) ) ;
#143 = LINE ( 'NONE', #215, #119 ) ;
#144 = DESIGN_CONTEXT ( 'detailed design', #71, 'design' ) ;
#145 = EDGE_CURVE ( 'NONE', #1, #104, #31, .T. ) ;
#146 = AXIS2_PLACEMENT_3D ( 'NONE', #115, #51, #196 ) ;
#147 = PERSON ( 'UNSPECIFIED', 'UNSPECIFIED', 'UNSPECIFIED', ('UNSPECIFIED'), ('UNSPECIFIED'), ('UNSPECIFIED') ) ;
#148 = VERTEX_POINT ( 'NONE', #66 ) ;
#149 = PRODUCT_DEFINITION_SHAPE ( 'NONE', 'NONE',  #75 ) ;
#150 = VECTOR ( 'NONE', #85, 1000.000000000000000 ) ;
#151 = PERSON_AND_ORGANIZATION ( #147, #183 ) ;
#152 = ORIENTED_EDGE ( 'NONE', *, *, #120, .F. ) ;
#153 = CC_DESIGN_PERSON_AND_ORGANIZATION_ASSIGNMENT ( #171, #128, ( #75 ) ) ;
#154 = APPROVAL_STATUS ( 'not_yet_approved' ) ;
#155 = DIRECTION ( 'NONE',  ( 1.000000000000000000, 1.239088197126291063E-16, 0.000000000000000000 ) ) ;
#156 = DATE_AND_TIME ( #158, #70 ) ;
#157 = PLANE ( 'NONE',  #124 ) ;
#158 = CALENDAR_DATE ( 2023, 10, 8 ) ;
#159 = CLOSED_SHELL ( 'NONE', ( #182, #65, #163, #140, #133, #126 ) ) ;
#160 = ORIENTED_EDGE ( 'NONE', *, *, #72, .F. ) ;
#161 = EDGE_LOOP ( 'NONE', ( #38, #122, #23, #125 ) ) ;
#162 = LINE ( 'NONE', #69, #150 ) ;
#163 = ADVANCED_FACE ( 'NONE', ( #139 ), #236, .F. ) ;
#164 = CARTESIAN_POINT ( 'NONE',  ( -55.99999999999997158, -56.00000000000000711, 5.000000000000000000 ) ) ;
#165 = APPROVAL_PERSON_ORGANIZATION ( #223, #214, #11 ) ;
#166 = UNCERTAINTY_MEASURE_WITH_UNIT (LENGTH_MEASURE( 1.000000000000000082E-05 ), #89, 'distance_accuracy_value', 'NONE');
#167 = AXIS2_PLACEMENT_3D ( 'NONE', #164, #117, #181 ) ;
#168 = ORIENTED_EDGE ( 'NONE', *, *, #26, .F. ) ;
#169 = PERSON_AND_ORGANIZATION_ROLE ( 'classification_officer' ) ;
#170 = ORIENTED_EDGE ( 'NONE', *, *, #34, .T. ) ;
#171 = PERSON_AND_ORGANIZATION ( #147, #183 ) ;
#172 = ORIENTED_EDGE ( 'NONE', *, *, #145, .T. ) ;
#173 = FACE_OUTER_BOUND ( 'NONE', #225, .T. ) ;
#174 = PERSON_AND_ORGANIZATION ( #147, #183 ) ;
#175 = LINE ( 'NONE', #79, #220 ) ;
#176 = APPLICATION_PROTOCOL_DEFINITION ( 'international standard', 'config_control_design', 1994, #222 ) ;
#177 = ORIENTED_EDGE ( 'NONE', *, *, #179, .T. ) ;
#178 = AXIS2_PLACEMENT_3D ( 'NONE', #50, #32, #49 ) ;
#179 = EDGE_CURVE ( 'NONE', #73, #1, #162, .T. ) ;
#180 = DIRECTION ( 'NONE',  ( -0.000000000000000000, -0.000000000000000000, -1.000000000000000000 ) ) ;
#181 = DIRECTION ( 'NONE',  ( -1.000000000000000000, -1.239088197126291063E-16, 0.000000000000000000 ) ) ;
#182 = ADVANCED_FACE ( 'NONE', ( #102 ), #200, .F. ) ;
#183 = ORGANIZATION ( 'UNSPECIFIED', 'UNSPECIFIED', '' ) ;
#184 = PRODUCT ( 'FE-460-2-F1', 'FE-460-2-F1', '', ( #107 ) ) ;
#185 = DATE_TIME_ROLE ( 'creation_date' ) ;
#186 = CC_DESIGN_DATE_AND_TIME_ASSIGNMENT ( #2, #111, ( #116 ) ) ;
#187 = ORIENTED_EDGE ( 'NONE', *, *, #101, .F. ) ;
#188 = COORDINATED_UNIVERSAL_TIME_OFFSET ( 9, 0, .AHEAD. ) ;
#189 = ORIENTED_EDGE ( 'NONE', *, *, #72, .T. ) ;
#190 = CARTESIAN_POINT ( 'NONE',  ( -55.99999999999997158, -56.00000000000000711, 5.000000000000000000 ) ) ;
#191 = CALENDAR_DATE ( 2023, 10, 8 ) ;
#192 = VERTEX_POINT ( 'NONE', #197 ) ;
#193 = EDGE_CURVE ( 'NONE', #20, #61, #103, .T. ) ;
#194 = CARTESIAN_POINT ( 'NONE',  ( 56.00000000000000000, -55.99999999999999289, 0.000000000000000000 ) ) ;
#195 = VECTOR ( 'NONE', #96, 1000.000000000000000 ) ;
#196 = DIRECTION ( 'NONE',  ( -0.000000000000000000, 0.000000000000000000, -1.000000000000000000 ) ) ;
#197 = CARTESIAN_POINT ( 'NONE',  ( 55.99999999999997158, 56.00000000000002842, 0.000000000000000000 ) ) ;
#198 = DIRECTION ( 'NONE',  ( -1.000000000000000000, -1.239088197126291310E-16, 0.000000000000000000 ) ) ;
#199 = VECTOR ( 'NONE', #198, 1000.000000000000000 ) ;
#200 = PLANE ( 'NONE',  #167 ) ;
#201 = ORIENTED_EDGE ( 'NONE', *, *, #193, .F. ) ;
#202 = VECTOR ( 'NONE', #209, 1000.000000000000000 ) ;
#203 = EDGE_CURVE ( 'NONE', #192, #148, #84, .T. ) ;
#204 = PERSON_AND_ORGANIZATION ( #147, #183 ) ;
#205 = CARTESIAN_POINT ( 'NONE',  ( -55.99999999999997158, -56.00000000000000711, 0.000000000000000000 ) ) ;
#206 = APPROVAL_DATE_TIME ( #28, #36 ) ;
#207 = ORIENTED_EDGE ( 'NONE', *, *, #226, .F. ) ;
#208 = PERSON_AND_ORGANIZATION_ROLE ( 'design_owner' ) ;
#209 = DIRECTION ( 'NONE',  ( 0.000000000000000000, -1.000000000000000000, 0.000000000000000000 ) ) ;
#210 = COORDINATED_UNIVERSAL_TIME_OFFSET ( 9, 0, .AHEAD. ) ;
#211 = FACE_OUTER_BOUND ( 'NONE', #53, .T. ) ;
#212 = DIRECTION ( 'NONE',  ( 0.000000000000000000, -0.000000000000000000, 1.000000000000000000 ) ) ;
#213 = LOCAL_TIME ( 16, 24, 0.000000000000000000, #210 ) ;
#214 = APPROVAL ( #154, 'UNSPECIFIED' ) ;
#215 = CARTESIAN_POINT ( 'NONE',  ( 55.99999999999997158, 56.00000000000002842, 5.000000000000000000 ) ) ;
#216 = CC_DESIGN_APPROVAL ( #214, ( #75 ) ) ;
#217 = CC_DESIGN_PERSON_AND_ORGANIZATION_ASSIGNMENT ( #174, #208, ( #184 ) ) ;
#218 = CC_DESIGN_PERSON_AND_ORGANIZATION_ASSIGNMENT ( #9, #169, ( #116 ) ) ;
#219 = MANIFOLD_SOLID_BREP ( 'ÎÞ½ - µoµ1', #159 ) ;
#220 = VECTOR ( 'NONE', #155, 1000.000000000000000 ) ;
#221 = ORIENTED_EDGE ( 'NONE', *, *, #120, .T. ) ;
#222 = APPLICATION_CONTEXT ( 'configuration controlled 3d designs of mechanical parts and assemblies' ) ;
#223 = PERSON_AND_ORGANIZATION ( #147, #183 ) ;
#224 = CC_DESIGN_APPROVAL ( #36, ( #55 ) ) ;
#225 = EDGE_LOOP ( 'NONE', ( #91, #207, #105, #172 ) ) ;
#226 = EDGE_CURVE ( 'NONE', #20, #192, #143, .T. ) ;
#227 = COORDINATED_UNIVERSAL_TIME_OFFSET ( 9, 0, .AHEAD. ) ;
#228 = CARTESIAN_POINT ( 'NONE',  ( -55.99999999999997158, 56.00000000000001421, 5.000000000000000000 ) ) ;
#229 = APPROVAL_ROLE ( '' ) ;
#230 = LINE ( 'NONE', #134, #202 ) ;
#231 = CARTESIAN_POINT ( 'NONE',  ( 0.000000000000000000, 0.000000000000000000, 5.000000000000000000 ) ) ;
#232 = VECTOR ( 'NONE', #142, 1000.000000000000000 ) ;
#233 = DIRECTION ( 'NONE',  ( -2.478176394252581141E-16, 1.000000000000000000, 0.000000000000000000 ) ) ;
#234 = CC_DESIGN_PERSON_AND_ORGANIZATION_ASSIGNMENT ( #109, #74, ( #55 ) ) ;
#235 = SECURITY_CLASSIFICATION_LEVEL ( 'unclassified' ) ;
#236 = PLANE ( 'NONE',  #178 ) ;
#237 = VECTOR ( 'NONE', #27, 1000.000000000000000 ) ;
ENDSEC;
END-ISO-10303-21;
