ISO-10303-21;
HEADER;
FILE_DESCRIPTION (( 'STEP AP203' ),
    '1' );
FILE_NAME ('FE-460-1-F3.STEP',
    '2023-08-10T07:23:12',
    ( '' ),
    ( '' ),
    'SwSTEP 2.0',
    'SolidWorks 2021',
    '' );
FILE_SCHEMA (( 'CONFIG_CONTROL_DESIGN' ));
ENDSEC;

DATA;
#1 = DIRECTION ( 'NONE',  ( -0.7071067811865455743, 0.7071067811865493491, 0.000000000000000000 ) ) ;
#2 = CC_DESIGN_DATE_AND_TIME_ASSIGNMENT ( #174, #58, ( #96 ) ) ;
#3 = CARTESIAN_POINT ( 'NONE',  ( 70.99999999999995737, 76.00000000000002842, 0.000000000000000000 ) ) ;
#4 = ORIENTED_EDGE ( 'NONE', *, *, #126, .T. ) ;
#5 =( GEOMETRIC_REPRESENTATION_CONTEXT ( 3 ) GLOBAL_UNCERTAINTY_ASSIGNED_CONTEXT ( ( #122 ) ) GLOBAL_UNIT_ASSIGNED_CONTEXT ( ( #86, #227, #294 ) ) REPRESENTATION_CONTEXT ( 'NONE', 'WORKASPACE' ) );
#6 = APPROVAL_DATE_TIME ( #203, #36 ) ;
#7 = ORIENTED_EDGE ( 'NONE', *, *, #257, .T. ) ;
#8 = APPROVAL_STATUS ( 'not_yet_approved' ) ;
#9 = ORIENTED_EDGE ( 'NONE', *, *, #164, .F. ) ;
#10 = LINE ( 'NONE', #264, #238 ) ;
#11 = EDGE_LOOP ( 'NONE', ( #97, #32, #39, #7 ) ) ;
#12 = ORIENTED_EDGE ( 'NONE', *, *, #169, .F. ) ;
#13 = LINE ( 'NONE', #354, #52 ) ;
#14 = ADVANCED_FACE ( 'NONE', ( #304 ), #131, .F. ) ;
#15 = DIRECTION ( 'NONE',  ( 0.000000000000000000, 0.000000000000000000, -1.000000000000000000 ) ) ;
#16 = PERSON_AND_ORGANIZATION_ROLE ( 'classification_officer' ) ;
#17 = APPROVAL_PERSON_ORGANIZATION ( #208, #134, #129 ) ;
#18 = CARTESIAN_POINT ( 'NONE',  ( 75.99999999999998579, -71.00000000000000000, 0.000000000000000000 ) ) ;
#19 = DIRECTION ( 'NONE',  ( 0.000000000000000000, 0.000000000000000000, -1.000000000000000000 ) ) ;
#20 = DIRECTION ( 'NONE',  ( 1.000000000000000000, 0.000000000000000000, -0.000000000000000000 ) ) ;
#21 = CARTESIAN_POINT ( 'NONE',  ( -75.99999999999995737, 71.00000000000001421, 0.000000000000000000 ) ) ;
#22 = CARTESIAN_POINT ( 'NONE',  ( -75.99999999999995737, 76.00000000000001421, 6.500000000000000000 ) ) ;
#23 = ADVANCED_FACE ( 'NONE', ( #130 ), #243, .T. ) ;
#24 = LINE ( 'NONE', #165, #255 ) ;
#25 = DIRECTION ( 'NONE',  ( 0.7071067811865474617, 0.7071067811865474617, -0.000000000000000000 ) ) ;
#26 = VECTOR ( 'NONE', #336, 1000.000000000000000 ) ;
#27 = AXIS2_PLACEMENT_3D ( 'NONE', #44, #184, #48 ) ;
#28 = LINE ( 'NONE', #334, #146 ) ;
#29 = DIRECTION ( 'NONE',  ( 0.000000000000000000, 0.000000000000000000, 1.000000000000000000 ) ) ;
#30 = ORIENTED_EDGE ( 'NONE', *, *, #164, .T. ) ;
#31 = CALENDAR_DATE ( 2023, 10, 8 ) ;
#32 = ORIENTED_EDGE ( 'NONE', *, *, #111, .T. ) ;
#33 = VECTOR ( 'NONE', #195, 1000.000000000000000 ) ;
#34 = AXIS2_PLACEMENT_3D ( 'NONE', #218, #219, #20 ) ;
#35 = ORIENTED_EDGE ( 'NONE', *, *, #333, .F. ) ;
#36 = APPROVAL ( #38, 'UNSPECIFIED' ) ;
#37 = ORIENTED_EDGE ( 'NONE', *, *, #217, .T. ) ;
#38 = APPROVAL_STATUS ( 'not_yet_approved' ) ;
#39 = ORIENTED_EDGE ( 'NONE', *, *, #120, .T. ) ;
#40 = LOCAL_TIME ( 16, 23, 12.00000000000000000, #286 ) ;
#41 = APPROVAL_DATE_TIME ( #241, #134 ) ;
#42 = DIRECTION ( 'NONE',  ( 1.000000000000000000, 9.130123557772672032E-17, 0.000000000000000000 ) ) ;
#43 = DIRECTION ( 'NONE',  ( 0.7071067811865455743, -0.7071067811865493491, -0.000000000000000000 ) ) ;
#44 = CARTESIAN_POINT ( 'NONE',  ( 0.000000000000000000, 0.000000000000000000, 6.500000000000000000 ) ) ;
#45 = VECTOR ( 'NONE', #338, 1000.000000000000000 ) ;
#46 = EDGE_CURVE ( 'NONE', #128, #65, #104, .T. ) ;
#47 = CARTESIAN_POINT ( 'NONE',  ( -75.99999999999995737, -70.99999999999998579, 6.500000000000000000 ) ) ;
#48 = DIRECTION ( 'NONE',  ( 1.000000000000000000, 0.000000000000000000, -0.000000000000000000 ) ) ;
#49 = DIRECTION ( 'NONE',  ( -0.7071067811865474617, -0.7071067811865474617, -0.000000000000000000 ) ) ;
#50 = CARTESIAN_POINT ( 'NONE',  ( 73.49999999999978684, -73.50000000000018474, 6.500000000000000000 ) ) ;
#51 = VECTOR ( 'NONE', #181, 1000.000000000000114 ) ;
#52 = VECTOR ( 'NONE', #15, 1000.000000000000000 ) ;
#53 = LINE ( 'NONE', #221, #117 ) ;
#54 = LINE ( 'NONE', #55, #245 ) ;
#55 = CARTESIAN_POINT ( 'NONE',  ( -73.49999999999998579, 73.49999999999998579, 6.500000000000000000 ) ) ;
#56 = ADVANCED_FACE ( 'NONE', ( #328 ), #189, .F. ) ;
#57 = AXIS2_PLACEMENT_3D ( 'NONE', #176, #267, #323 ) ;
#58 = DATE_TIME_ROLE ( 'creation_date' ) ;
#59 = ORIENTED_EDGE ( 'NONE', *, *, #365, .F. ) ;
#60 = CALENDAR_DATE ( 2023, 10, 8 ) ;
#61 = ORIENTED_EDGE ( 'NONE', *, *, #152, .F. ) ;
#62 = CC_DESIGN_SECURITY_CLASSIFICATION ( #327, ( #314 ) ) ;
#63 = VECTOR ( 'NONE', #83, 1000.000000000000114 ) ;
#64 = ADVANCED_FACE ( 'NONE', ( #214 ), #248, .F. ) ;
#65 = VERTEX_POINT ( 'NONE', #183 ) ;
#66 = ORIENTED_EDGE ( 'NONE', *, *, #46, .F. ) ;
#67 = LINE ( 'NONE', #297, #161 ) ;
#68 = EDGE_CURVE ( 'NONE', #142, #116, #158, .T. ) ;
#69 = CARTESIAN_POINT ( 'NONE',  ( -70.99999999999995737, 76.00000000000001421, 6.500000000000000000 ) ) ;
#70 = CARTESIAN_POINT ( 'NONE',  ( 70.99999999999995737, 76.00000000000002842, 6.500000000000000000 ) ) ;
#71 = CC_DESIGN_PERSON_AND_ORGANIZATION_ASSIGNMENT ( #119, #232, ( #314 ) ) ;
#72 = ORIENTED_EDGE ( 'NONE', *, *, #269, .F. ) ;
#73 = EDGE_LOOP ( 'NONE', ( #72, #89, #35, #204 ) ) ;
#74 = FACE_OUTER_BOUND ( 'NONE', #236, .T. ) ;
#75 = PLANE ( 'NONE',  #254 ) ;
#76 = EDGE_CURVE ( 'NONE', #339, #142, #299, .T. ) ;
#77 = DIRECTION ( 'NONE',  ( 0.7071067811865475727, -0.7071067811865475727, 0.000000000000000000 ) ) ;
#78 = AXIS2_PLACEMENT_3D ( 'NONE', #335, #77, #363 ) ;
#79 = VECTOR ( 'NONE', #25, 1000.000000000000114 ) ;
#80 = PRODUCT_DEFINITION_SHAPE ( 'NONE', 'NONE',  #96 ) ;
#81 = LINE ( 'NONE', #196, #291 ) ;
#82 = ORIENTED_EDGE ( 'NONE', *, *, #240, .F. ) ;
#83 = DIRECTION ( 'NONE',  ( 0.7071067811865455743, -0.7071067811865493491, -0.000000000000000000 ) ) ;
#84 = DIRECTION ( 'NONE',  ( 1.000000000000000000, 0.000000000000000000, 0.000000000000000000 ) ) ;
#85 = VECTOR ( 'NONE', #311, 1000.000000000000114 ) ;
#86 =( LENGTH_UNIT ( ) NAMED_UNIT ( * ) SI_UNIT ( .MILLI., .METRE. ) );
#87 = ORIENTED_EDGE ( 'NONE', *, *, #188, .F. ) ;
#88 = COORDINATED_UNIVERSAL_TIME_OFFSET ( 9, 0, .AHEAD. ) ;
#89 = ORIENTED_EDGE ( 'NONE', *, *, #217, .F. ) ;
#90 = ADVANCED_FACE ( 'NONE', ( #246 ), #272, .F. ) ;
#91 = ADVANCED_BREP_SHAPE_REPRESENTATION ( 'FE-460-1-F3', ( #263, #308 ), #5 ) ;
#92 = PERSON_AND_ORGANIZATION_ROLE ( 'creator' ) ;
#93 = EDGE_LOOP ( 'NONE', ( #59, #113, #317, #343 ) ) ;
#94 = PERSON_AND_ORGANIZATION ( #228, #355 ) ;
#95 = ORIENTED_EDGE ( 'NONE', *, *, #103, .F. ) ;
#96 = PRODUCT_DEFINITION ( 'UNKNOWN', '', #314, #319 ) ;
#97 = ORIENTED_EDGE ( 'NONE', *, *, #143, .F. ) ;
#98 = DIRECTION ( 'NONE',  ( -1.826024711554533420E-16, 1.000000000000000000, 0.000000000000000000 ) ) ;
#99 = VECTOR ( 'NONE', #43, 1000.000000000000114 ) ;
#100 = CARTESIAN_POINT ( 'NONE',  ( -70.99999999999995737, 76.00000000000001421, 6.500000000000000000 ) ) ;
#101 = CARTESIAN_POINT ( 'NONE',  ( -75.99999999999995737, -70.99999999999998579, 6.500000000000000000 ) ) ;
#102 = PRODUCT ( 'FE-460-1-F3', 'FE-460-1-F3', '', ( #205 ) ) ;
#103 = EDGE_CURVE ( 'NONE', #145, #260, #67, .T. ) ;
#104 = LINE ( 'NONE', #133, #99 ) ;
#105 = CARTESIAN_POINT ( 'NONE',  ( 75.99999999999995737, 76.00000000000002842, 0.000000000000000000 ) ) ;
#106 = AXIS2_PLACEMENT_3D ( 'NONE', #361, #163, #275 ) ;
#107 = ADVANCED_FACE ( 'NONE', ( #242 ), #302, .F. ) ;
#108 = LINE ( 'NONE', #110, #26 ) ;
#109 = DIRECTION ( 'NONE',  ( 0.000000000000000000, 0.000000000000000000, -1.000000000000000000 ) ) ;
#110 = CARTESIAN_POINT ( 'NONE',  ( 75.99999999999995737, 71.00000000000000000, 6.500000000000000000 ) ) ;
#111 = EDGE_CURVE ( 'NONE', #124, #121, #13, .T. ) ;
#112 = CARTESIAN_POINT ( 'NONE',  ( 75.99999999999995737, 71.00000000000000000, 6.500000000000000000 ) ) ;
#113 = ORIENTED_EDGE ( 'NONE', *, *, #257, .F. ) ;
#114 = DIRECTION ( 'NONE',  ( -0.000000000000000000, 0.000000000000000000, -1.000000000000000000 ) ) ;
#115 = CARTESIAN_POINT ( 'NONE',  ( 0.000000000000000000, 0.000000000000000000, 0.000000000000000000 ) ) ;
#116 = VERTEX_POINT ( 'NONE', #100 ) ;
#117 = VECTOR ( 'NONE', #305, 1000.000000000000000 ) ;
#118 = AXIS2_PLACEMENT_3D ( 'NONE', #359, #136, #19 ) ;
#119 = PERSON_AND_ORGANIZATION ( #228, #355 ) ;
#120 = EDGE_CURVE ( 'NONE', #121, #200, #160, .T. ) ;
#121 = VERTEX_POINT ( 'NONE', #18 ) ;
#122 = UNCERTAINTY_MEASURE_WITH_UNIT (LENGTH_MEASURE( 1.000000000000000082E-05 ), #86, 'distance_accuracy_value', 'NONE');
#123 = PERSON_AND_ORGANIZATION_ROLE ( 'design_owner' ) ;
#124 = VERTEX_POINT ( 'NONE', #326 ) ;
#125 = EDGE_LOOP ( 'NONE', ( #95, #313, #345, #369, #287, #325, #180, #324 ) ) ;
#126 = EDGE_CURVE ( 'NONE', #231, #128, #358, .T. ) ;
#127 = CALENDAR_DATE ( 2023, 10, 8 ) ;
#128 = VERTEX_POINT ( 'NONE', #47 ) ;
#129 = APPROVAL_ROLE ( '' ) ;
#130 = FACE_OUTER_BOUND ( 'NONE', #347, .T. ) ;
#131 = PLANE ( 'NONE',  #118 ) ;
#132 = VECTOR ( 'NONE', #139, 1000.000000000000000 ) ;
#133 = CARTESIAN_POINT ( 'NONE',  ( -73.50000000000017053, -73.49999999999977263, 6.500000000000000000 ) ) ;
#134 = APPROVAL ( #353, 'UNSPECIFIED' ) ;
#135 = DIRECTION ( 'NONE',  ( -1.826024711554533420E-16, 1.000000000000000000, 0.000000000000000000 ) ) ;
#136 = DIRECTION ( 'NONE',  ( -0.7071067811865455743, 0.7071067811865494601, 0.000000000000000000 ) ) ;
#137 = CARTESIAN_POINT ( 'NONE',  ( -70.99999999999995737, -76.00000000000001421, 6.500000000000000000 ) ) ;
#138 = LINE ( 'NONE', #137, #45 ) ;
#139 = DIRECTION ( 'NONE',  ( -1.000000000000000000, -9.130123557772674497E-17, 0.000000000000000000 ) ) ;
#140 = DIRECTION ( 'NONE',  ( 0.7071067811865494601, 0.7071067811865455743, 0.000000000000000000 ) ) ;
#141 = FACE_OUTER_BOUND ( 'NONE', #151, .T. ) ;
#142 = VERTEX_POINT ( 'NONE', #331 ) ;
#143 = EDGE_CURVE ( 'NONE', #124, #149, #162, .T. ) ;
#144 = PERSON_AND_ORGANIZATION ( #228, #355 ) ;
#145 = VERTEX_POINT ( 'NONE', #247 ) ;
#146 = VECTOR ( 'NONE', #166, 1000.000000000000000 ) ;
#147 = VECTOR ( 'NONE', #135, 1000.000000000000000 ) ;
#148 = APPROVAL_ROLE ( '' ) ;
#149 = VERTEX_POINT ( 'NONE', #112 ) ;
#150 = CALENDAR_DATE ( 2023, 10, 8 ) ;
#151 = EDGE_LOOP ( 'NONE', ( #175, #4, #300, #177 ) ) ;
#152 = EDGE_CURVE ( 'NONE', #145, #231, #170, .T. ) ;
#153 = APPROVAL_ROLE ( '' ) ;
#154 = ORIENTED_EDGE ( 'NONE', *, *, #188, .T. ) ;
#155 = LOCAL_TIME ( 16, 23, 12.00000000000000000, #270 ) ;
#156 = SHAPE_DEFINITION_REPRESENTATION ( #80, #91 ) ;
#157 = DIRECTION ( 'NONE',  ( -1.000000000000000000, -1.826024711554533667E-16, 0.000000000000000000 ) ) ;
#158 = LINE ( 'NONE', #69, #167 ) ;
#159 = EDGE_CURVE ( 'NONE', #293, #239, #24, .T. ) ;
#160 = LINE ( 'NONE', #273, #367 ) ;
#161 = VECTOR ( 'NONE', #42, 1000.000000000000000 ) ;
#162 = LINE ( 'NONE', #274, #147 ) ;
#163 = DIRECTION ( 'NONE',  ( -9.130123557772674497E-17, 1.000000000000000000, 0.000000000000000000 ) ) ;
#164 = EDGE_CURVE ( 'NONE', #116, #293, #54, .T. ) ;
#165 = CARTESIAN_POINT ( 'NONE',  ( -75.99999999999995737, 71.00000000000001421, 6.500000000000000000 ) ) ;
#166 = DIRECTION ( 'NONE',  ( 0.000000000000000000, -1.000000000000000000, 0.000000000000000000 ) ) ;
#167 = VECTOR ( 'NONE', #186, 1000.000000000000000 ) ;
#168 = DIRECTION ( 'NONE',  ( 1.000000000000000000, 9.130123557772672032E-17, 0.000000000000000000 ) ) ;
#169 = EDGE_CURVE ( 'NONE', #239, #142, #279, .T. ) ;
#170 = LINE ( 'NONE', #225, #357 ) ;
#171 = LINE ( 'NONE', #50, #85 ) ;
#172 = CC_DESIGN_APPROVAL ( #194, ( #96 ) ) ;
#173 = VERTEX_POINT ( 'NONE', #256 ) ;
#174 = DATE_AND_TIME ( #60, #249 ) ;
#175 = ORIENTED_EDGE ( 'NONE', *, *, #288, .T. ) ;
#176 = CARTESIAN_POINT ( 'NONE',  ( 75.99999999999995737, 76.00000000000002842, 6.500000000000000000 ) ) ;
#177 = ORIENTED_EDGE ( 'NONE', *, *, #159, .T. ) ;
#178 = LOCAL_TIME ( 16, 23, 12.00000000000000000, #315 ) ;
#179 = ADVANCED_FACE ( 'NONE', ( #252 ), #364, .F. ) ;
#180 = ORIENTED_EDGE ( 'NONE', *, *, #120, .F. ) ;
#181 = DIRECTION ( 'NONE',  ( -0.7071067811865455743, 0.7071067811865493491, -0.000000000000000000 ) ) ;
#182 = ORIENTED_EDGE ( 'NONE', *, *, #329, .T. ) ;
#183 = CARTESIAN_POINT ( 'NONE',  ( -70.99999999999995737, -76.00000000000001421, 6.500000000000000000 ) ) ;
#184 = DIRECTION ( 'NONE',  ( 0.000000000000000000, -0.000000000000000000, 1.000000000000000000 ) ) ;
#185 = EDGE_CURVE ( 'NONE', #65, #173, #81, .T. ) ;
#186 = DIRECTION ( 'NONE',  ( 0.000000000000000000, 0.000000000000000000, 1.000000000000000000 ) ) ;
#187 = DIRECTION ( 'NONE',  ( 0.000000000000000000, 0.000000000000000000, -1.000000000000000000 ) ) ;
#188 = EDGE_CURVE ( 'NONE', #295, #116, #224, .T. ) ;
#189 = PLANE ( 'NONE',  #106 ) ;
#190 = CARTESIAN_POINT ( 'NONE',  ( -75.99999999999995737, 71.00000000000001421, 0.000000000000000000 ) ) ;
#191 = CARTESIAN_POINT ( 'NONE',  ( 70.99999999999995737, 76.00000000000002842, 0.000000000000000000 ) ) ;
#192 = APPROVAL_PERSON_ORGANIZATION ( #94, #36, #153 ) ;
#193 = CARTESIAN_POINT ( 'NONE',  ( 70.99999999999995737, 76.00000000000002842, 6.500000000000000000 ) ) ;
#194 = APPROVAL ( #8, 'UNSPECIFIED' ) ;
#195 = DIRECTION ( 'NONE',  ( 0.000000000000000000, 0.000000000000000000, 1.000000000000000000 ) ) ;
#196 = CARTESIAN_POINT ( 'NONE',  ( -75.99999999999995737, -76.00000000000001421, 6.500000000000000000 ) ) ;
#197 = DATE_AND_TIME ( #150, #178 ) ;
#198 = PRODUCT_RELATED_PRODUCT_CATEGORY ( 'detail', '', ( #102 ) ) ;
#199 = CARTESIAN_POINT ( 'NONE',  ( 73.50000000000018474, 73.49999999999978684, 6.500000000000000000 ) ) ;
#200 = VERTEX_POINT ( 'NONE', #310 ) ;
#201 = APPLICATION_PROTOCOL_DEFINITION ( 'international standard', 'config_control_design', 1994, #235 ) ;
#202 = ORIENTED_EDGE ( 'NONE', *, *, #68, .F. ) ;
#203 = DATE_AND_TIME ( #31, #40 ) ;
#204 = ORIENTED_EDGE ( 'NONE', *, *, #111, .F. ) ;
#205 = MECHANICAL_CONTEXT ( 'NONE', #235, 'mechanical' ) ;
#206 = EDGE_LOOP ( 'NONE', ( #321, #266, #87, #182 ) ) ;
#207 = ORIENTED_EDGE ( 'NONE', *, *, #365, .T. ) ;
#208 = PERSON_AND_ORGANIZATION ( #228, #355 ) ;
#209 = DIRECTION ( 'NONE',  ( -0.7071067811865494601, -0.7071067811865455743, -0.000000000000000000 ) ) ;
#210 = EDGE_CURVE ( 'NONE', #339, #200, #368, .T. ) ;
#211 = AXIS2_PLACEMENT_3D ( 'NONE', #332, #157, #271 ) ;
#212 = VECTOR ( 'NONE', #356, 1000.000000000000000 ) ;
#213 = PERSON_AND_ORGANIZATION ( #228, #355 ) ;
#214 = FACE_OUTER_BOUND ( 'NONE', #125, .T. ) ;
#215 = DATE_AND_TIME ( #296, #155 ) ;
#216 = DIRECTION ( 'NONE',  ( 0.000000000000000000, 0.000000000000000000, 1.000000000000000000 ) ) ;
#217 = EDGE_CURVE ( 'NONE', #260, #173, #307, .T. ) ;
#218 = CARTESIAN_POINT ( 'NONE',  ( 0.000000000000000000, 0.000000000000000000, 0.000000000000000000 ) ) ;
#219 = DIRECTION ( 'NONE',  ( 0.000000000000000000, -0.000000000000000000, 1.000000000000000000 ) ) ;
#220 = CARTESIAN_POINT ( 'NONE',  ( -75.99999999999995737, 71.00000000000001421, 6.500000000000000000 ) ) ;
#221 = CARTESIAN_POINT ( 'NONE',  ( -75.99999999999995737, 76.00000000000001421, 6.500000000000000000 ) ) ;
#222 = EDGE_CURVE ( 'NONE', #293, #128, #53, .T. ) ;
#223 = CC_DESIGN_APPROVAL ( #134, ( #327 ) ) ;
#224 = LINE ( 'NONE', #283, #132 ) ;
#225 = CARTESIAN_POINT ( 'NONE',  ( -70.99999999999995737, -76.00000000000001421, 0.000000000000000000 ) ) ;
#226 = ORIENTED_EDGE ( 'NONE', *, *, #159, .F. ) ;
#227 =( NAMED_UNIT ( * ) PLANE_ANGLE_UNIT ( ) SI_UNIT ( $, .RADIAN. ) );
#228 = PERSON ( 'UNSPECIFIED', 'UNSPECIFIED', 'UNSPECIFIED', ('UNSPECIFIED'), ('UNSPECIFIED'), ('UNSPECIFIED') ) ;
#229 = DIRECTION ( 'NONE',  ( -0.7071067811865493491, -0.7071067811865455743, -0.000000000000000000 ) ) ;
#230 = CLOSED_SHELL ( 'NONE', ( #56, #107, #340, #318, #23, #64, #179, #14, #322, #90 ) ) ;
#231 = VERTEX_POINT ( 'NONE', #276 ) ;
#232 = PERSON_AND_ORGANIZATION_ROLE ( 'design_supplier' ) ;
#233 = ORIENTED_EDGE ( 'NONE', *, *, #185, .T. ) ;
#234 = PERSON_AND_ORGANIZATION ( #228, #355 ) ;
#235 = APPLICATION_CONTEXT ( 'configuration controlled 3d designs of mechanical parts and assemblies' ) ;
#236 = EDGE_LOOP ( 'NONE', ( #9, #202, #12, #226 ) ) ;
#237 = ORIENTED_EDGE ( 'NONE', *, *, #185, .F. ) ;
#238 = VECTOR ( 'NONE', #229, 1000.000000000000114 ) ;
#239 = VERTEX_POINT ( 'NONE', #21 ) ;
#240 = EDGE_CURVE ( 'NONE', #65, #145, #138, .T. ) ;
#241 = DATE_AND_TIME ( #127, #281 ) ;
#242 = FACE_OUTER_BOUND ( 'NONE', #11, .T. ) ;
#243 = PLANE ( 'NONE',  #27 ) ;
#244 = CC_DESIGN_APPROVAL ( #36, ( #314 ) ) ;
#245 = VECTOR ( 'NONE', #49, 1000.000000000000114 ) ;
#246 = FACE_OUTER_BOUND ( 'NONE', #93, .T. ) ;
#247 = CARTESIAN_POINT ( 'NONE',  ( -70.99999999999995737, -76.00000000000001421, 0.000000000000000000 ) ) ;
#248 = PLANE ( 'NONE',  #34 ) ;
#249 = LOCAL_TIME ( 16, 23, 12.00000000000000000, #88 ) ;
#250 = CARTESIAN_POINT ( 'NONE',  ( 70.99999999999995737, -76.00000000000000000, 0.000000000000000000 ) ) ;
#251 = PLANE ( 'NONE',  #78 ) ;
#252 = FACE_OUTER_BOUND ( 'NONE', #320, .T. ) ;
#253 = APPLICATION_CONTEXT ( 'configuration controlled 3d designs of mechanical parts and assemblies' ) ;
#254 = AXIS2_PLACEMENT_3D ( 'NONE', #22, #258, #114 ) ;
#255 = VECTOR ( 'NONE', #341, 1000.000000000000000 ) ;
#256 = CARTESIAN_POINT ( 'NONE',  ( 70.99999999999995737, -76.00000000000000000, 6.500000000000000000 ) ) ;
#257 = EDGE_CURVE ( 'NONE', #200, #149, #108, .T. ) ;
#258 = DIRECTION ( 'NONE',  ( 1.000000000000000000, 0.000000000000000000, -0.000000000000000000 ) ) ;
#259 = PERSON_AND_ORGANIZATION ( #228, #355 ) ;
#260 = VERTEX_POINT ( 'NONE', #250 ) ;
#261 = PERSON_AND_ORGANIZATION_ROLE ( 'creator' ) ;
#262 = ORIENTED_EDGE ( 'NONE', *, *, #143, .T. ) ;
#263 = MANIFOLD_SOLID_BREP ( 'C5', #230 ) ;
#264 = CARTESIAN_POINT ( 'NONE',  ( 75.99999999999998579, -71.00000000000000000, 0.000000000000000000 ) ) ;
#265 = ORIENTED_EDGE ( 'NONE', *, *, #222, .T. ) ;
#266 = ORIENTED_EDGE ( 'NONE', *, *, #68, .T. ) ;
#267 = DIRECTION ( 'NONE',  ( 9.130123557772675730E-17, -1.000000000000000000, 0.000000000000000000 ) ) ;
#268 = EDGE_LOOP ( 'NONE', ( #237, #285, #292, #37 ) ) ;
#269 = EDGE_CURVE ( 'NONE', #173, #124, #171, .T. ) ;
#270 = COORDINATED_UNIVERSAL_TIME_OFFSET ( 9, 0, .AHEAD. ) ;
#271 = DIRECTION ( 'NONE',  ( 1.826024711554533667E-16, -1.000000000000000000, 0.000000000000000000 ) ) ;
#272 = PLANE ( 'NONE',  #282 ) ;
#273 = CARTESIAN_POINT ( 'NONE',  ( 75.99999999999998579, -76.00000000000000000, 0.000000000000000000 ) ) ;
#274 = CARTESIAN_POINT ( 'NONE',  ( 75.99999999999998579, -76.00000000000000000, 6.500000000000000000 ) ) ;
#275 = DIRECTION ( 'NONE',  ( -1.000000000000000000, -9.130123557772674497E-17, 0.000000000000000000 ) ) ;
#276 = CARTESIAN_POINT ( 'NONE',  ( -75.99999999999995737, -70.99999999999998579, 0.000000000000000000 ) ) ;
#277 = CARTESIAN_POINT ( 'NONE',  ( 70.99999999999995737, 76.00000000000002842, 6.500000000000000000 ) ) ;
#278 = LINE ( 'NONE', #193, #289 ) ;
#279 = LINE ( 'NONE', #190, #79 ) ;
#280 = CC_DESIGN_DATE_AND_TIME_ASSIGNMENT ( #215, #351, ( #327 ) ) ;
#281 = LOCAL_TIME ( 16, 23, 12.00000000000000000, #330 ) ;
#282 = AXIS2_PLACEMENT_3D ( 'NONE', #70, #209, #187 ) ;
#283 = CARTESIAN_POINT ( 'NONE',  ( 75.99999999999995737, 76.00000000000002842, 6.500000000000000000 ) ) ;
#284 = PLANE ( 'NONE',  #57 ) ;
#285 = ORIENTED_EDGE ( 'NONE', *, *, #240, .T. ) ;
#286 = COORDINATED_UNIVERSAL_TIME_OFFSET ( 9, 0, .AHEAD. ) ;
#287 = ORIENTED_EDGE ( 'NONE', *, *, #76, .F. ) ;
#288 = EDGE_CURVE ( 'NONE', #239, #231, #28, .T. ) ;
#289 = VECTOR ( 'NONE', #344, 1000.000000000000000 ) ;
#290 = LINE ( 'NONE', #199, #51 ) ;
#291 = VECTOR ( 'NONE', #168, 1000.000000000000000 ) ;
#292 = ORIENTED_EDGE ( 'NONE', *, *, #103, .T. ) ;
#293 = VERTEX_POINT ( 'NONE', #220 ) ;
#294 =( NAMED_UNIT ( * ) SI_UNIT ( $, .STERADIAN. ) SOLID_ANGLE_UNIT ( ) );
#295 = VERTEX_POINT ( 'NONE', #277 ) ;
#296 = CALENDAR_DATE ( 2023, 10, 8 ) ;
#297 = CARTESIAN_POINT ( 'NONE',  ( -75.99999999999995737, -76.00000000000001421, 0.000000000000000000 ) ) ;
#298 = SECURITY_CLASSIFICATION_LEVEL ( 'unclassified' ) ;
#299 = LINE ( 'NONE', #105, #212 ) ;
#300 = ORIENTED_EDGE ( 'NONE', *, *, #222, .F. ) ;
#301 = CC_DESIGN_PERSON_AND_ORGANIZATION_ASSIGNMENT ( #234, #92, ( #96 ) ) ;
#302 = PLANE ( 'NONE',  #211 ) ;
#303 = AXIS2_PLACEMENT_3D ( 'NONE', #362, #140, #109 ) ;
#304 = FACE_OUTER_BOUND ( 'NONE', #73, .T. ) ;
#305 = DIRECTION ( 'NONE',  ( 0.000000000000000000, -1.000000000000000000, 0.000000000000000000 ) ) ;
#306 = CC_DESIGN_PERSON_AND_ORGANIZATION_ASSIGNMENT ( #259, #123, ( #102 ) ) ;
#307 = LINE ( 'NONE', #312, #33 ) ;
#308 = AXIS2_PLACEMENT_3D ( 'NONE', #115, #29, #84 ) ;
#309 = VECTOR ( 'NONE', #216, 1000.000000000000000 ) ;
#310 = CARTESIAN_POINT ( 'NONE',  ( 75.99999999999995737, 71.00000000000000000, 0.000000000000000000 ) ) ;
#311 = DIRECTION ( 'NONE',  ( 0.7071067811865493491, 0.7071067811865455743, -0.000000000000000000 ) ) ;
#312 = CARTESIAN_POINT ( 'NONE',  ( 70.99999999999995737, -76.00000000000000000, 6.500000000000000000 ) ) ;
#313 = ORIENTED_EDGE ( 'NONE', *, *, #152, .T. ) ;
#314 = PRODUCT_DEFINITION_FORMATION_WITH_SPECIFIED_SOURCE ( 'ANY', '', #102, .NOT_KNOWN. ) ;
#315 = COORDINATED_UNIVERSAL_TIME_OFFSET ( 9, 0, .AHEAD. ) ;
#316 = APPROVAL_DATE_TIME ( #197, #194 ) ;
#317 = ORIENTED_EDGE ( 'NONE', *, *, #210, .F. ) ;
#318 = ADVANCED_FACE ( 'NONE', ( #141 ), #75, .F. ) ;
#319 = DESIGN_CONTEXT ( 'detailed design', #253, 'design' ) ;
#320 = EDGE_LOOP ( 'NONE', ( #66, #352, #61, #82 ) ) ;
#321 = ORIENTED_EDGE ( 'NONE', *, *, #76, .T. ) ;
#322 = ADVANCED_FACE ( 'NONE', ( #74 ), #251, .F. ) ;
#323 = DIRECTION ( 'NONE',  ( 1.000000000000000000, 9.130123557772675730E-17, 0.000000000000000000 ) ) ;
#324 = ORIENTED_EDGE ( 'NONE', *, *, #333, .T. ) ;
#325 = ORIENTED_EDGE ( 'NONE', *, *, #210, .T. ) ;
#326 = CARTESIAN_POINT ( 'NONE',  ( 75.99999999999998579, -71.00000000000000000, 6.500000000000000000 ) ) ;
#327 = SECURITY_CLASSIFICATION ( '', '', #298 ) ;
#328 = FACE_OUTER_BOUND ( 'NONE', #268, .T. ) ;
#329 = EDGE_CURVE ( 'NONE', #295, #339, #278, .T. ) ;
#330 = COORDINATED_UNIVERSAL_TIME_OFFSET ( 9, 0, .AHEAD. ) ;
#331 = CARTESIAN_POINT ( 'NONE',  ( -70.99999999999995737, 76.00000000000001421, 0.000000000000000000 ) ) ;
#332 = CARTESIAN_POINT ( 'NONE',  ( 75.99999999999998579, -76.00000000000000000, 6.500000000000000000 ) ) ;
#333 = EDGE_CURVE ( 'NONE', #121, #260, #10, .T. ) ;
#334 = CARTESIAN_POINT ( 'NONE',  ( -75.99999999999995737, 76.00000000000001421, 0.000000000000000000 ) ) ;
#335 = CARTESIAN_POINT ( 'NONE',  ( -75.99999999999995737, 71.00000000000001421, 6.500000000000000000 ) ) ;
#336 = DIRECTION ( 'NONE',  ( 0.000000000000000000, 0.000000000000000000, 1.000000000000000000 ) ) ;
#337 = APPROVAL_PERSON_ORGANIZATION ( #349, #194, #148 ) ;
#338 = DIRECTION ( 'NONE',  ( 0.000000000000000000, 0.000000000000000000, -1.000000000000000000 ) ) ;
#339 = VERTEX_POINT ( 'NONE', #3 ) ;
#340 = ADVANCED_FACE ( 'NONE', ( #346 ), #284, .F. ) ;
#341 = DIRECTION ( 'NONE',  ( 0.000000000000000000, 0.000000000000000000, -1.000000000000000000 ) ) ;
#342 = APPLICATION_PROTOCOL_DEFINITION ( 'international standard', 'config_control_design', 1994, #253 ) ;
#343 = ORIENTED_EDGE ( 'NONE', *, *, #329, .F. ) ;
#344 = DIRECTION ( 'NONE',  ( 0.000000000000000000, 0.000000000000000000, -1.000000000000000000 ) ) ;
#345 = ORIENTED_EDGE ( 'NONE', *, *, #288, .F. ) ;
#346 = FACE_OUTER_BOUND ( 'NONE', #206, .T. ) ;
#347 = EDGE_LOOP ( 'NONE', ( #265, #350, #233, #366, #262, #207, #154, #30 ) ) ;
#348 = CC_DESIGN_PERSON_AND_ORGANIZATION_ASSIGNMENT ( #144, #261, ( #314 ) ) ;
#349 = PERSON_AND_ORGANIZATION ( #228, #355 ) ;
#350 = ORIENTED_EDGE ( 'NONE', *, *, #46, .T. ) ;
#351 = DATE_TIME_ROLE ( 'classification_date' ) ;
#352 = ORIENTED_EDGE ( 'NONE', *, *, #126, .F. ) ;
#353 = APPROVAL_STATUS ( 'not_yet_approved' ) ;
#354 = CARTESIAN_POINT ( 'NONE',  ( 75.99999999999998579, -71.00000000000000000, 6.500000000000000000 ) ) ;
#355 = ORGANIZATION ( 'UNSPECIFIED', 'UNSPECIFIED', '' ) ;
#356 = DIRECTION ( 'NONE',  ( -1.000000000000000000, -9.130123557772674497E-17, 0.000000000000000000 ) ) ;
#357 = VECTOR ( 'NONE', #1, 1000.000000000000114 ) ;
#358 = LINE ( 'NONE', #101, #309 ) ;
#359 = CARTESIAN_POINT ( 'NONE',  ( 75.99999999999998579, -71.00000000000000000, 6.500000000000000000 ) ) ;
#360 = CC_DESIGN_PERSON_AND_ORGANIZATION_ASSIGNMENT ( #213, #16, ( #327 ) ) ;
#361 = CARTESIAN_POINT ( 'NONE',  ( -75.99999999999995737, -76.00000000000001421, 6.500000000000000000 ) ) ;
#362 = CARTESIAN_POINT ( 'NONE',  ( -70.99999999999995737, -76.00000000000001421, 6.500000000000000000 ) ) ;
#363 = DIRECTION ( 'NONE',  ( 0.000000000000000000, 0.000000000000000000, -1.000000000000000000 ) ) ;
#364 = PLANE ( 'NONE',  #303 ) ;
#365 = EDGE_CURVE ( 'NONE', #149, #295, #290, .T. ) ;
#366 = ORIENTED_EDGE ( 'NONE', *, *, #269, .T. ) ;
#367 = VECTOR ( 'NONE', #98, 1000.000000000000000 ) ;
#368 = LINE ( 'NONE', #191, #63 ) ;
#369 = ORIENTED_EDGE ( 'NONE', *, *, #169, .T. ) ;
ENDSEC;
END-ISO-10303-21;
