ISO-10303-21;
HEADER;
FILE_DESCRIPTION (( 'STEP AP203' ),
    '1' );
FILE_NAME ('FE-460-1-F2.STEP',
    '2023-08-10T07:22:23',
    ( '' ),
    ( '' ),
    'SwSTEP 2.0',
    'SolidWorks 2021',
    '' );
FILE_SCHEMA (( 'CONFIG_CONTROL_DESIGN' ));
ENDSEC;

DATA;
#1 = ADVANCED_FACE ( 'NONE', ( #41 ), #111, .F. ) ;
#2 = COORDINATED_UNIVERSAL_TIME_OFFSET ( 9, 0, .AHEAD. ) ;
#3 = AXIS2_PLACEMENT_3D ( 'NONE', #229, #99, #100 ) ;
#4 = CC_DESIGN_PERSON_AND_ORGANIZATION_ASSIGNMENT ( #139, #104, ( #120 ) ) ;
#5 = ORIENTED_EDGE ( 'NONE', *, *, #53, .T. ) ;
#6 = EDGE_CURVE ( 'NONE', #183, #186, #230, .T. ) ;
#7 = ORIENTED_EDGE ( 'NONE', *, *, #79, .F. ) ;
#8 = FACE_OUTER_BOUND ( 'NONE', #148, .T. ) ;
#9 = CARTESIAN_POINT ( 'NONE',  ( -75.99999999999995737, -76.00000000000001421, 0.000000000000000000 ) ) ;
#10 = VECTOR ( 'NONE', #173, 1000.000000000000000 ) ;
#11 = CARTESIAN_POINT ( 'NONE',  ( 75.99999999999995737, 76.00000000000002842, 0.000000000000000000 ) ) ;
#12 = CC_DESIGN_PERSON_AND_ORGANIZATION_ASSIGNMENT ( #105, #122, ( #232 ) ) ;
#13 = DIRECTION ( 'NONE',  ( 0.000000000000000000, -1.000000000000000000, 0.000000000000000000 ) ) ;
#14 = CARTESIAN_POINT ( 'NONE',  ( 75.99999999999998579, -76.00000000000000000, 5.000000000000000000 ) ) ;
#15 = EDGE_CURVE ( 'NONE', #57, #165, #84, .T. ) ;
#16 = CALENDAR_DATE ( 2023, 10, 8 ) ;
#17 = PLANE ( 'NONE',  #226 ) ;
#18 = DIRECTION ( 'NONE',  ( 0.000000000000000000, 0.000000000000000000, 1.000000000000000000 ) ) ;
#19 = LOCAL_TIME ( 16, 22, 23.00000000000000000, #177 ) ;
#20 = PERSON_AND_ORGANIZATION_ROLE ( 'design_supplier' ) ;
#21 = VERTEX_POINT ( 'NONE', #154 ) ;
#22 = VECTOR ( 'NONE', #67, 1000.000000000000000 ) ;
#23 = APPROVAL_STATUS ( 'not_yet_approved' ) ;
#24 = ORIENTED_EDGE ( 'NONE', *, *, #107, .T. ) ;
#25 = ORIENTED_EDGE ( 'NONE', *, *, #169, .F. ) ;
#26 = LOCAL_TIME ( 16, 22, 23.00000000000000000, #219 ) ;
#27 = CARTESIAN_POINT ( 'NONE',  ( 75.99999999999995737, 76.00000000000002842, 5.000000000000000000 ) ) ;
#28 = DIRECTION ( 'NONE',  ( 0.000000000000000000, -0.000000000000000000, 1.000000000000000000 ) ) ;
#29 = LINE ( 'NONE', #133, #54 ) ;
#30 = DIRECTION ( 'NONE',  ( -0.000000000000000000, -0.000000000000000000, -1.000000000000000000 ) ) ;
#31 = DIRECTION ( 'NONE',  ( 9.130123557772674497E-17, -1.000000000000000000, 0.000000000000000000 ) ) ;
#32 = APPROVAL_DATE_TIME ( #106, #63 ) ;
#33 = AXIS2_PLACEMENT_3D ( 'NONE', #82, #189, #156 ) ;
#34 = PERSON_AND_ORGANIZATION_ROLE ( 'creator' ) ;
#35 = CARTESIAN_POINT ( 'NONE',  ( -75.99999999999995737, -76.00000000000001421, 5.000000000000000000 ) ) ;
#36 = COORDINATED_UNIVERSAL_TIME_OFFSET ( 9, 0, .AHEAD. ) ;
#37 = CC_DESIGN_PERSON_AND_ORGANIZATION_ASSIGNMENT ( #182, #49, ( #157 ) ) ;
#38 = DATE_AND_TIME ( #221, #77 ) ;
#39 = APPLICATION_CONTEXT ( 'configuration controlled 3d designs of mechanical parts and assemblies' ) ;
#40 = EDGE_LOOP ( 'NONE', ( #58, #147, #76, #78 ) ) ;
#41 = FACE_OUTER_BOUND ( 'NONE', #127, .T. ) ;
#42 = APPROVAL ( #180, 'UNSPECIFIED' ) ;
#43 = CARTESIAN_POINT ( 'NONE',  ( 75.99999999999998579, -76.00000000000000000, 0.000000000000000000 ) ) ;
#44 = APPROVAL_PERSON_ORGANIZATION ( #128, #187, #96 ) ;
#45 = DIRECTION ( 'NONE',  ( 1.000000000000000000, 0.000000000000000000, -0.000000000000000000 ) ) ;
#46 = CARTESIAN_POINT ( 'NONE',  ( -75.99999999999995737, -76.00000000000001421, 5.000000000000000000 ) ) ;
#47 = DIRECTION ( 'NONE',  ( -1.000000000000000000, -1.826024711554533420E-16, 0.000000000000000000 ) ) ;
#48 = LINE ( 'NONE', #46, #163 ) ;
#49 = PERSON_AND_ORGANIZATION_ROLE ( 'design_owner' ) ;
#50 =( GEOMETRIC_REPRESENTATION_CONTEXT ( 3 ) GLOBAL_UNCERTAINTY_ASSIGNED_CONTEXT ( ( #118 ) ) GLOBAL_UNIT_ASSIGNED_CONTEXT ( ( #160, #234, #92 ) ) REPRESENTATION_CONTEXT ( 'NONE', 'WORKASPACE' ) );
#51 = APPLICATION_PROTOCOL_DEFINITION ( 'international standard', 'config_control_design', 1994, #39 ) ;
#52 = CALENDAR_DATE ( 2023, 10, 8 ) ;
#53 = EDGE_CURVE ( 'NONE', #21, #186, #136, .T. ) ;
#54 = VECTOR ( 'NONE', #135, 1000.000000000000000 ) ;
#55 = APPROVAL_DATE_TIME ( #38, #187 ) ;
#56 = ORIENTED_EDGE ( 'NONE', *, *, #79, .T. ) ;
#57 = VERTEX_POINT ( 'NONE', #9 ) ;
#58 = ORIENTED_EDGE ( 'NONE', *, *, #15, .F. ) ;
#59 = APPROVAL_PERSON_ORGANIZATION ( #197, #42, #214 ) ;
#60 = ADVANCED_FACE ( 'NONE', ( #85 ), #114, .T. ) ;
#61 = ORIENTED_EDGE ( 'NONE', *, *, #190, .T. ) ;
#62 = FACE_OUTER_BOUND ( 'NONE', #40, .T. ) ;
#63 = APPROVAL ( #218, 'UNSPECIFIED' ) ;
#64 = VECTOR ( 'NONE', #155, 1000.000000000000000 ) ;
#65 = CARTESIAN_POINT ( 'NONE',  ( -75.99999999999995737, -76.00000000000001421, 5.000000000000000000 ) ) ;
#66 = CARTESIAN_POINT ( 'NONE',  ( 75.99999999999995737, 76.00000000000002842, 5.000000000000000000 ) ) ;
#67 = DIRECTION ( 'NONE',  ( 1.000000000000000000, 9.130123557772672032E-17, 0.000000000000000000 ) ) ;
#68 = CC_DESIGN_PERSON_AND_ORGANIZATION_ASSIGNMENT ( #140, #34, ( #132 ) ) ;
#69 = AXIS2_PLACEMENT_3D ( 'NONE', #14, #47, #81 ) ;
#70 = SECURITY_CLASSIFICATION_LEVEL ( 'unclassified' ) ;
#71 = PRODUCT_DEFINITION_SHAPE ( 'NONE', 'NONE',  #232 ) ;
#72 = DIRECTION ( 'NONE',  ( -1.000000000000000000, -9.130123557772672032E-17, 0.000000000000000000 ) ) ;
#73 = APPLICATION_PROTOCOL_DEFINITION ( 'international standard', 'config_control_design', 1994, #203 ) ;
#74 = DATE_AND_TIME ( #235, #195 ) ;
#75 = DATE_AND_TIME ( #124, #141 ) ;
#76 = ORIENTED_EDGE ( 'NONE', *, *, #6, .F. ) ;
#77 = LOCAL_TIME ( 16, 22, 23.00000000000000000, #2 ) ;
#78 = ORIENTED_EDGE ( 'NONE', *, *, #113, .F. ) ;
#79 = EDGE_CURVE ( 'NONE', #21, #206, #227, .T. ) ;
#80 = ORIENTED_EDGE ( 'NONE', *, *, #53, .F. ) ;
#81 = DIRECTION ( 'NONE',  ( 1.826024711554533420E-16, -1.000000000000000000, 0.000000000000000000 ) ) ;
#82 = CARTESIAN_POINT ( 'NONE',  ( 0.000000000000000000, 0.000000000000000000, 0.000000000000000000 ) ) ;
#83 = ORGANIZATION ( 'UNSPECIFIED', 'UNSPECIFIED', '' ) ;
#84 = LINE ( 'NONE', #130, #22 ) ;
#85 = FACE_OUTER_BOUND ( 'NONE', #223, .T. ) ;
#86 = ADVANCED_FACE ( 'NONE', ( #62 ), #102, .F. ) ;
#87 = DIRECTION ( 'NONE',  ( -1.826024711554533420E-16, 1.000000000000000000, 0.000000000000000000 ) ) ;
#88 = VECTOR ( 'NONE', #13, 1000.000000000000000 ) ;
#89 = DIRECTION ( 'NONE',  ( -9.130123557772672032E-17, 1.000000000000000000, 0.000000000000000000 ) ) ;
#90 = CARTESIAN_POINT ( 'NONE',  ( 75.99999999999998579, -76.00000000000000000, 5.000000000000000000 ) ) ;
#91 = APPROVAL_PERSON_ORGANIZATION ( #198, #63, #142 ) ;
#92 =( NAMED_UNIT ( * ) SI_UNIT ( $, .STERADIAN. ) SOLID_ANGLE_UNIT ( ) );
#93 = ORIENTED_EDGE ( 'NONE', *, *, #184, .T. ) ;
#94 = VECTOR ( 'NONE', #208, 1000.000000000000000 ) ;
#95 = VERTEX_POINT ( 'NONE', #66 ) ;
#96 = APPROVAL_ROLE ( '' ) ;
#97 = ORIENTED_EDGE ( 'NONE', *, *, #113, .T. ) ;
#98 = CARTESIAN_POINT ( 'NONE',  ( 0.000000000000000000, 0.000000000000000000, 5.000000000000000000 ) ) ;
#99 = DIRECTION ( 'NONE',  ( 1.000000000000000000, 0.000000000000000000, -0.000000000000000000 ) ) ;
#100 = DIRECTION ( 'NONE',  ( -0.000000000000000000, 0.000000000000000000, -1.000000000000000000 ) ) ;
#101 = VECTOR ( 'NONE', #211, 1000.000000000000000 ) ;
#102 = PLANE ( 'NONE',  #33 ) ;
#103 = CARTESIAN_POINT ( 'NONE',  ( 75.99999999999998579, -76.00000000000000000, 0.000000000000000000 ) ) ;
#104 = PERSON_AND_ORGANIZATION_ROLE ( 'classification_officer' ) ;
#105 = PERSON_AND_ORGANIZATION ( #134, #83 ) ;
#106 = DATE_AND_TIME ( #52, #26 ) ;
#107 = EDGE_CURVE ( 'NONE', #206, #57, #119, .T. ) ;
#108 = ORIENTED_EDGE ( 'NONE', *, *, #201, .F. ) ;
#109 = ORIENTED_EDGE ( 'NONE', *, *, #201, .T. ) ;
#110 = EDGE_LOOP ( 'NONE', ( #168, #170, #25, #24 ) ) ;
#111 = PLANE ( 'NONE',  #126 ) ;
#112 = ORIENTED_EDGE ( 'NONE', *, *, #169, .T. ) ;
#113 = EDGE_CURVE ( 'NONE', #165, #183, #196, .T. ) ;
#114 = PLANE ( 'NONE',  #145 ) ;
#115 = CC_DESIGN_APPROVAL ( #187, ( #120 ) ) ;
#116 = CARTESIAN_POINT ( 'NONE',  ( 75.99999999999995737, 76.00000000000002842, 0.000000000000000000 ) ) ;
#117 = FACE_OUTER_BOUND ( 'NONE', #150, .T. ) ;
#118 = UNCERTAINTY_MEASURE_WITH_UNIT (LENGTH_MEASURE( 1.000000000000000082E-05 ), #160, 'distance_accuracy_value', 'NONE');
#119 = LINE ( 'NONE', #65, #199 ) ;
#120 = SECURITY_CLASSIFICATION ( '', '', #70 ) ;
#121 = CARTESIAN_POINT ( 'NONE',  ( 75.99999999999998579, -76.00000000000000000, 5.000000000000000000 ) ) ;
#122 = PERSON_AND_ORGANIZATION_ROLE ( 'creator' ) ;
#123 = EDGE_CURVE ( 'NONE', #186, #57, #29, .T. ) ;
#124 = CALENDAR_DATE ( 2023, 10, 8 ) ;
#125 = FACE_OUTER_BOUND ( 'NONE', #110, .T. ) ;
#126 = AXIS2_PLACEMENT_3D ( 'NONE', #185, #31, #191 ) ;
#127 = EDGE_LOOP ( 'NONE', ( #149, #80, #129, #109 ) ) ;
#128 = PERSON_AND_ORGANIZATION ( #134, #83 ) ;
#129 = ORIENTED_EDGE ( 'NONE', *, *, #138, .F. ) ;
#130 = CARTESIAN_POINT ( 'NONE',  ( -75.99999999999995737, -76.00000000000001421, 0.000000000000000000 ) ) ;
#131 = CARTESIAN_POINT ( 'NONE',  ( 75.99999999999995737, 76.00000000000002842, 5.000000000000000000 ) ) ;
#132 = PRODUCT_DEFINITION_FORMATION_WITH_SPECIFIED_SOURCE ( 'ANY', '', #157, .NOT_KNOWN. ) ;
#133 = CARTESIAN_POINT ( 'NONE',  ( -75.99999999999995737, 76.00000000000001421, 0.000000000000000000 ) ) ;
#134 = PERSON ( 'UNSPECIFIED', 'UNSPECIFIED', 'UNSPECIFIED', ('UNSPECIFIED'), ('UNSPECIFIED'), ('UNSPECIFIED') ) ;
#135 = DIRECTION ( 'NONE',  ( 0.000000000000000000, -1.000000000000000000, 0.000000000000000000 ) ) ;
#136 = LINE ( 'NONE', #207, #220 ) ;
#137 = CC_DESIGN_APPROVAL ( #42, ( #232 ) ) ;
#138 = EDGE_CURVE ( 'NONE', #95, #21, #175, .T. ) ;
#139 = PERSON_AND_ORGANIZATION ( #134, #83 ) ;
#140 = PERSON_AND_ORGANIZATION ( #134, #83 ) ;
#141 = LOCAL_TIME ( 16, 22, 23.00000000000000000, #215 ) ;
#142 = APPROVAL_ROLE ( '' ) ;
#143 = DATE_TIME_ROLE ( 'creation_date' ) ;
#144 = SHAPE_DEFINITION_REPRESENTATION ( #71, #192 ) ;
#145 = AXIS2_PLACEMENT_3D ( 'NONE', #98, #28, #45 ) ;
#146 = ADVANCED_FACE ( 'NONE', ( #8 ), #209, .F. ) ;
#147 = ORIENTED_EDGE ( 'NONE', *, *, #123, .F. ) ;
#148 = EDGE_LOOP ( 'NONE', ( #204, #202, #7, #5 ) ) ;
#149 = ORIENTED_EDGE ( 'NONE', *, *, #6, .T. ) ;
#150 = EDGE_LOOP ( 'NONE', ( #97, #108, #167, #93 ) ) ;
#151 = ORIENTED_EDGE ( 'NONE', *, *, #138, .T. ) ;
#152 = DESIGN_CONTEXT ( 'detailed design', #39, 'design' ) ;
#153 = CARTESIAN_POINT ( 'NONE',  ( -75.99999999999995737, 76.00000000000001421, 0.000000000000000000 ) ) ;
#154 = CARTESIAN_POINT ( 'NONE',  ( -75.99999999999995737, 76.00000000000001421, 5.000000000000000000 ) ) ;
#155 = DIRECTION ( 'NONE',  ( -1.000000000000000000, -9.130123557772674497E-17, 0.000000000000000000 ) ) ;
#156 = DIRECTION ( 'NONE',  ( 1.000000000000000000, 0.000000000000000000, -0.000000000000000000 ) ) ;
#157 = PRODUCT ( 'FE-460-1-F2', 'FE-460-1-F2', '', ( #161 ) ) ;
#158 = LINE ( 'NONE', #131, #94 ) ;
#159 = CLOSED_SHELL ( 'NONE', ( #222, #179, #1, #146, #60, #86 ) ) ;
#160 =( LENGTH_UNIT ( ) NAMED_UNIT ( * ) SI_UNIT ( .MILLI., .METRE. ) );
#161 = MECHANICAL_CONTEXT ( 'NONE', #203, 'mechanical' ) ;
#162 = CC_DESIGN_DATE_AND_TIME_ASSIGNMENT ( #233, #166, ( #120 ) ) ;
#163 = VECTOR ( 'NONE', #210, 1000.000000000000000 ) ;
#164 = APPROVAL_DATE_TIME ( #75, #42 ) ;
#165 = VERTEX_POINT ( 'NONE', #103 ) ;
#166 = DATE_TIME_ROLE ( 'classification_date' ) ;
#167 = ORIENTED_EDGE ( 'NONE', *, *, #190, .F. ) ;
#168 = ORIENTED_EDGE ( 'NONE', *, *, #15, .T. ) ;
#169 = EDGE_CURVE ( 'NONE', #206, #224, #48, .T. ) ;
#170 = ORIENTED_EDGE ( 'NONE', *, *, #184, .F. ) ;
#171 = DIRECTION ( 'NONE',  ( -1.000000000000000000, -9.130123557772674497E-17, 0.000000000000000000 ) ) ;
#172 = CC_DESIGN_PERSON_AND_ORGANIZATION_ASSIGNMENT ( #178, #20, ( #132 ) ) ;
#173 = DIRECTION ( 'NONE',  ( -1.826024711554533420E-16, 1.000000000000000000, 0.000000000000000000 ) ) ;
#174 = CARTESIAN_POINT ( 'NONE',  ( 75.99999999999998579, -76.00000000000000000, 5.000000000000000000 ) ) ;
#175 = LINE ( 'NONE', #27, #231 ) ;
#176 = PLANE ( 'NONE',  #69 ) ;
#177 = COORDINATED_UNIVERSAL_TIME_OFFSET ( 9, 0, .AHEAD. ) ;
#178 = PERSON_AND_ORGANIZATION ( #134, #83 ) ;
#179 = ADVANCED_FACE ( 'NONE', ( #117 ), #176, .F. ) ;
#180 = APPROVAL_STATUS ( 'not_yet_approved' ) ;
#181 = CARTESIAN_POINT ( 'NONE',  ( 0.000000000000000000, 0.000000000000000000, 0.000000000000000000 ) ) ;
#182 = PERSON_AND_ORGANIZATION ( #134, #83 ) ;
#183 = VERTEX_POINT ( 'NONE', #116 ) ;
#184 = EDGE_CURVE ( 'NONE', #224, #165, #194, .T. ) ;
#185 = CARTESIAN_POINT ( 'NONE',  ( 75.99999999999995737, 76.00000000000002842, 5.000000000000000000 ) ) ;
#186 = VERTEX_POINT ( 'NONE', #153 ) ;
#187 = APPROVAL ( #23, 'UNSPECIFIED' ) ;
#188 = CC_DESIGN_APPROVAL ( #63, ( #132 ) ) ;
#189 = DIRECTION ( 'NONE',  ( 0.000000000000000000, -0.000000000000000000, 1.000000000000000000 ) ) ;
#190 = EDGE_CURVE ( 'NONE', #224, #95, #225, .T. ) ;
#191 = DIRECTION ( 'NONE',  ( 1.000000000000000000, 9.130123557772674497E-17, 0.000000000000000000 ) ) ;
#192 = ADVANCED_BREP_SHAPE_REPRESENTATION ( 'FE-460-1-F2', ( #237, #217 ), #50 ) ;
#193 = CARTESIAN_POINT ( 'NONE',  ( -75.99999999999995737, 76.00000000000001421, 5.000000000000000000 ) ) ;
#194 = LINE ( 'NONE', #174, #101 ) ;
#195 = LOCAL_TIME ( 16, 22, 23.00000000000000000, #36 ) ;
#196 = LINE ( 'NONE', #43, #10 ) ;
#197 = PERSON_AND_ORGANIZATION ( #134, #83 ) ;
#198 = PERSON_AND_ORGANIZATION ( #134, #83 ) ;
#199 = VECTOR ( 'NONE', #30, 1000.000000000000000 ) ;
#200 = CARTESIAN_POINT ( 'NONE',  ( -75.99999999999995737, -76.00000000000001421, 5.000000000000000000 ) ) ;
#201 = EDGE_CURVE ( 'NONE', #95, #183, #158, .T. ) ;
#202 = ORIENTED_EDGE ( 'NONE', *, *, #107, .F. ) ;
#203 = APPLICATION_CONTEXT ( 'configuration controlled 3d designs of mechanical parts and assemblies' ) ;
#204 = ORIENTED_EDGE ( 'NONE', *, *, #123, .T. ) ;
#205 = CC_DESIGN_DATE_AND_TIME_ASSIGNMENT ( #74, #143, ( #232 ) ) ;
#206 = VERTEX_POINT ( 'NONE', #35 ) ;
#207 = CARTESIAN_POINT ( 'NONE',  ( -75.99999999999995737, 76.00000000000001421, 5.000000000000000000 ) ) ;
#208 = DIRECTION ( 'NONE',  ( -0.000000000000000000, -0.000000000000000000, -1.000000000000000000 ) ) ;
#209 = PLANE ( 'NONE',  #3 ) ;
#210 = DIRECTION ( 'NONE',  ( 1.000000000000000000, 9.130123557772672032E-17, 0.000000000000000000 ) ) ;
#211 = DIRECTION ( 'NONE',  ( -0.000000000000000000, -0.000000000000000000, -1.000000000000000000 ) ) ;
#212 = CC_DESIGN_SECURITY_CLASSIFICATION ( #120, ( #132 ) ) ;
#213 = PRODUCT_RELATED_PRODUCT_CATEGORY ( 'detail', '', ( #157 ) ) ;
#214 = APPROVAL_ROLE ( '' ) ;
#215 = COORDINATED_UNIVERSAL_TIME_OFFSET ( 9, 0, .AHEAD. ) ;
#216 = DIRECTION ( 'NONE',  ( 1.000000000000000000, 0.000000000000000000, 0.000000000000000000 ) ) ;
#217 = AXIS2_PLACEMENT_3D ( 'NONE', #181, #18, #216 ) ;
#218 = APPROVAL_STATUS ( 'not_yet_approved' ) ;
#219 = COORDINATED_UNIVERSAL_TIME_OFFSET ( 9, 0, .AHEAD. ) ;
#220 = VECTOR ( 'NONE', #228, 1000.000000000000000 ) ;
#221 = CALENDAR_DATE ( 2023, 10, 8 ) ;
#222 = ADVANCED_FACE ( 'NONE', ( #125 ), #17, .F. ) ;
#223 = EDGE_LOOP ( 'NONE', ( #112, #61, #151, #56 ) ) ;
#224 = VERTEX_POINT ( 'NONE', #90 ) ;
#225 = LINE ( 'NONE', #121, #236 ) ;
#226 = AXIS2_PLACEMENT_3D ( 'NONE', #200, #89, #72 ) ;
#227 = LINE ( 'NONE', #193, #88 ) ;
#228 = DIRECTION ( 'NONE',  ( -0.000000000000000000, -0.000000000000000000, -1.000000000000000000 ) ) ;
#229 = CARTESIAN_POINT ( 'NONE',  ( -75.99999999999995737, 76.00000000000001421, 5.000000000000000000 ) ) ;
#230 = LINE ( 'NONE', #11, #64 ) ;
#231 = VECTOR ( 'NONE', #171, 1000.000000000000000 ) ;
#232 = PRODUCT_DEFINITION ( 'UNKNOWN', '', #132, #152 ) ;
#233 = DATE_AND_TIME ( #16, #19 ) ;
#234 =( NAMED_UNIT ( * ) PLANE_ANGLE_UNIT ( ) SI_UNIT ( $, .RADIAN. ) );
#235 = CALENDAR_DATE ( 2023, 10, 8 ) ;
#236 = VECTOR ( 'NONE', #87, 1000.000000000000000 ) ;
#237 = MANIFOLD_SOLID_BREP ( 'ÎÞ½ - µoµ1', #159 ) ;
ENDSEC;
END-ISO-10303-21;
