ISO-10303-21;
HEADER;
FILE_DESCRIPTION (( 'STEP AP203' ),
    '1' );
FILE_NAME ('FE-460-1-F1.STEP',
    '2023-08-10T07:21:22',
    ( '' ),
    ( '' ),
    'SwSTEP 2.0',
    'SolidWorks 2021',
    '' );
FILE_SCHEMA (( 'CONFIG_CONTROL_DESIGN' ));
ENDSEC;

DATA;
#1 = CALENDAR_DATE ( 2023, 10, 8 ) ;
#2 = ORIENTED_EDGE ( 'NONE', *, *, #5, .T. ) ;
#3 = DIRECTION ( 'NONE',  ( 0.000000000000000000, 0.000000000000000000, 1.000000000000000000 ) ) ;
#4 = DESIGN_CONTEXT ( 'detailed design', #170, 'design' ) ;
#5 = EDGE_CURVE ( 'NONE', #150, #148, #226, .T. ) ;
#6 = PERSON_AND_ORGANIZATION ( #85, #88 ) ;
#7 = APPLICATION_PROTOCOL_DEFINITION ( 'international standard', 'config_control_design', 1994, #170 ) ;
#8 = CARTESIAN_POINT ( 'NONE',  ( -75.99999999999995737, -76.00000000000001421, 5.000000000000000000 ) ) ;
#9 = ORIENTED_EDGE ( 'NONE', *, *, #64, .F. ) ;
#10 = SECURITY_CLASSIFICATION ( '', '', #75 ) ;
#11 = CC_DESIGN_PERSON_AND_ORGANIZATION_ASSIGNMENT ( #189, #61, ( #120 ) ) ;
#12 =( NAMED_UNIT ( * ) SI_UNIT ( $, .STERADIAN. ) SOLID_ANGLE_UNIT ( ) );
#13 = ORIENTED_EDGE ( 'NONE', *, *, #44, .F. ) ;
#14 = PRODUCT_RELATED_PRODUCT_CATEGORY ( 'detail', '', ( #220 ) ) ;
#15 = PLANE ( 'NONE',  #224 ) ;
#16 = EDGE_LOOP ( 'NONE', ( #56, #9, #28, #193 ) ) ;
#17 = FACE_OUTER_BOUND ( 'NONE', #16, .T. ) ;
#18 = DIRECTION ( 'NONE',  ( 1.000000000000000000, 0.000000000000000000, -0.000000000000000000 ) ) ;
#19 = COORDINATED_UNIVERSAL_TIME_OFFSET ( 9, 0, .AHEAD. ) ;
#20 = VECTOR ( 'NONE', #209, 1000.000000000000000 ) ;
#21 = COORDINATED_UNIVERSAL_TIME_OFFSET ( 9, 0, .AHEAD. ) ;
#22 = DATE_AND_TIME ( #1, #184 ) ;
#23 = EDGE_CURVE ( 'NONE', #217, #150, #27, .T. ) ;
#24 = DATE_TIME_ROLE ( 'classification_date' ) ;
#25 = VECTOR ( 'NONE', #67, 1000.000000000000000 ) ;
#26 = CALENDAR_DATE ( 2023, 10, 8 ) ;
#27 = LINE ( 'NONE', #89, #20 ) ;
#28 = ORIENTED_EDGE ( 'NONE', *, *, #126, .F. ) ;
#29 =( GEOMETRIC_REPRESENTATION_CONTEXT ( 3 ) GLOBAL_UNCERTAINTY_ASSIGNED_CONTEXT ( ( #202 ) ) GLOBAL_UNIT_ASSIGNED_CONTEXT ( ( #36, #144, #12 ) ) REPRESENTATION_CONTEXT ( 'NONE', 'WORKASPACE' ) );
#30 = ORIENTED_EDGE ( 'NONE', *, *, #23, .F. ) ;
#31 = LINE ( 'NONE', #66, #237 ) ;
#32 = CC_DESIGN_PERSON_AND_ORGANIZATION_ASSIGNMENT ( #218, #112, ( #34 ) ) ;
#33 = CARTESIAN_POINT ( 'NONE',  ( -75.99999999999995737, -76.00000000000001421, 5.000000000000000000 ) ) ;
#34 = PRODUCT_DEFINITION_FORMATION_WITH_SPECIFIED_SOURCE ( 'ANY', '', #220, .NOT_KNOWN. ) ;
#35 = LINE ( 'NONE', #230, #111 ) ;
#36 =( LENGTH_UNIT ( ) NAMED_UNIT ( * ) SI_UNIT ( .MILLI., .METRE. ) );
#37 = PLANE ( 'NONE',  #136 ) ;
#38 = APPROVAL_PERSON_ORGANIZATION ( #6, #80, #155 ) ;
#39 = FACE_OUTER_BOUND ( 'NONE', #102, .T. ) ;
#40 = EDGE_CURVE ( 'NONE', #140, #217, #86, .T. ) ;
#41 = APPROVAL_STATUS ( 'not_yet_approved' ) ;
#42 = VECTOR ( 'NONE', #197, 1000.000000000000000 ) ;
#43 = PERSON_AND_ORGANIZATION ( #85, #88 ) ;
#44 = EDGE_CURVE ( 'NONE', #99, #181, #158, .T. ) ;
#45 = PERSON_AND_ORGANIZATION_ROLE ( 'classification_officer' ) ;
#46 = APPROVAL_ROLE ( '' ) ;
#47 = ORIENTED_EDGE ( 'NONE', *, *, #160, .F. ) ;
#48 = EDGE_CURVE ( 'NONE', #142, #148, #96, .T. ) ;
#49 = LINE ( 'NONE', #118, #171 ) ;
#50 = ORIENTED_EDGE ( 'NONE', *, *, #126, .T. ) ;
#51 = DIRECTION ( 'NONE',  ( -1.000000000000000000, -9.130123557772674497E-17, 0.000000000000000000 ) ) ;
#52 = CARTESIAN_POINT ( 'NONE',  ( 75.99999999999998579, -76.00000000000000000, 5.000000000000000000 ) ) ;
#53 = CARTESIAN_POINT ( 'NONE',  ( -75.99999999999995737, 76.00000000000001421, 5.000000000000000000 ) ) ;
#54 = CARTESIAN_POINT ( 'NONE',  ( 75.99999999999995737, 76.00000000000002842, 0.000000000000000000 ) ) ;
#55 = VECTOR ( 'NONE', #196, 1000.000000000000000 ) ;
#56 = ORIENTED_EDGE ( 'NONE', *, *, #44, .T. ) ;
#57 = APPROVAL ( #154, 'UNSPECIFIED' ) ;
#58 = CALENDAR_DATE ( 2023, 10, 8 ) ;
#59 = COORDINATED_UNIVERSAL_TIME_OFFSET ( 9, 0, .AHEAD. ) ;
#60 = APPLICATION_PROTOCOL_DEFINITION ( 'international standard', 'config_control_design', 1994, #143 ) ;
#61 = PERSON_AND_ORGANIZATION_ROLE ( 'creator' ) ;
#62 = VECTOR ( 'NONE', #215, 1000.000000000000000 ) ;
#63 = CARTESIAN_POINT ( 'NONE',  ( 75.99999999999995737, 76.00000000000002842, 5.000000000000000000 ) ) ;
#64 = EDGE_CURVE ( 'NONE', #140, #181, #31, .T. ) ;
#65 = CC_DESIGN_APPROVAL ( #80, ( #34 ) ) ;
#66 = CARTESIAN_POINT ( 'NONE',  ( 75.99999999999995737, 76.00000000000002842, 5.000000000000000000 ) ) ;
#67 = DIRECTION ( 'NONE',  ( -1.826024711554533420E-16, 1.000000000000000000, 0.000000000000000000 ) ) ;
#68 = DIRECTION ( 'NONE',  ( -1.000000000000000000, -1.826024711554533420E-16, 0.000000000000000000 ) ) ;
#69 = AXIS2_PLACEMENT_3D ( 'NONE', #186, #182, #18 ) ;
#70 = CARTESIAN_POINT ( 'NONE',  ( 75.99999999999995737, 76.00000000000002842, 5.000000000000000000 ) ) ;
#71 = CARTESIAN_POINT ( 'NONE',  ( 75.99999999999998579, -76.00000000000000000, 5.000000000000000000 ) ) ;
#72 = PRODUCT_DEFINITION_SHAPE ( 'NONE', 'NONE',  #120 ) ;
#73 = DIRECTION ( 'NONE',  ( 0.000000000000000000, -0.000000000000000000, 1.000000000000000000 ) ) ;
#74 = FACE_OUTER_BOUND ( 'NONE', #177, .T. ) ;
#75 = SECURITY_CLASSIFICATION_LEVEL ( 'unclassified' ) ;
#76 = EDGE_CURVE ( 'NONE', #148, #99, #49, .T. ) ;
#77 = CALENDAR_DATE ( 2023, 10, 8 ) ;
#78 = DATE_AND_TIME ( #77, #175 ) ;
#79 = DIRECTION ( 'NONE',  ( 1.000000000000000000, 0.000000000000000000, 0.000000000000000000 ) ) ;
#80 = APPROVAL ( #173, 'UNSPECIFIED' ) ;
#81 = ORIENTED_EDGE ( 'NONE', *, *, #134, .F. ) ;
#82 = APPROVAL_PERSON_ORGANIZATION ( #95, #57, #176 ) ;
#83 = CARTESIAN_POINT ( 'NONE',  ( 75.99999999999998579, -76.00000000000000000, 0.000000000000000000 ) ) ;
#84 = CC_DESIGN_PERSON_AND_ORGANIZATION_ASSIGNMENT ( #43, #153, ( #220 ) ) ;
#85 = PERSON ( 'UNSPECIFIED', 'UNSPECIFIED', 'UNSPECIFIED', ('UNSPECIFIED'), ('UNSPECIFIED'), ('UNSPECIFIED') ) ;
#86 = LINE ( 'NONE', #63, #227 ) ;
#87 = CARTESIAN_POINT ( 'NONE',  ( -75.99999999999995737, 76.00000000000001421, 0.000000000000000000 ) ) ;
#88 = ORGANIZATION ( 'UNSPECIFIED', 'UNSPECIFIED', '' ) ;
#89 = CARTESIAN_POINT ( 'NONE',  ( -75.99999999999995737, 76.00000000000001421, 5.000000000000000000 ) ) ;
#90 = CARTESIAN_POINT ( 'NONE',  ( 75.99999999999995737, 76.00000000000002842, 5.000000000000000000 ) ) ;
#91 = ORIENTED_EDGE ( 'NONE', *, *, #76, .F. ) ;
#92 = CARTESIAN_POINT ( 'NONE',  ( -75.99999999999995737, 76.00000000000001421, 0.000000000000000000 ) ) ;
#93 = CC_DESIGN_APPROVAL ( #100, ( #120 ) ) ;
#94 = EDGE_CURVE ( 'NONE', #150, #178, #97, .T. ) ;
#95 = PERSON_AND_ORGANIZATION ( #85, #88 ) ;
#96 = LINE ( 'NONE', #87, #116 ) ;
#97 = LINE ( 'NONE', #8, #55 ) ;
#98 = ORIENTED_EDGE ( 'NONE', *, *, #94, .F. ) ;
#99 = VERTEX_POINT ( 'NONE', #101 ) ;
#100 = APPROVAL ( #41, 'UNSPECIFIED' ) ;
#101 = CARTESIAN_POINT ( 'NONE',  ( 75.99999999999998579, -76.00000000000000000, 0.000000000000000000 ) ) ;
#102 = EDGE_LOOP ( 'NONE', ( #205, #183, #30, #167 ) ) ;
#103 = DIRECTION ( 'NONE',  ( -9.130123557772672032E-17, 1.000000000000000000, 0.000000000000000000 ) ) ;
#104 = ORIENTED_EDGE ( 'NONE', *, *, #40, .F. ) ;
#105 = VECTOR ( 'NONE', #185, 1000.000000000000000 ) ;
#106 = CARTESIAN_POINT ( 'NONE',  ( -75.99999999999995737, -76.00000000000001421, 0.000000000000000000 ) ) ;
#107 = PLANE ( 'NONE',  #69 ) ;
#108 = MANIFOLD_SOLID_BREP ( 'ÎÞ½ - µoµ1', #152 ) ;
#109 = CC_DESIGN_PERSON_AND_ORGANIZATION_ASSIGNMENT ( #113, #115, ( #34 ) ) ;
#110 = COORDINATED_UNIVERSAL_TIME_OFFSET ( 9, 0, .AHEAD. ) ;
#111 = VECTOR ( 'NONE', #180, 1000.000000000000000 ) ;
#112 = PERSON_AND_ORGANIZATION_ROLE ( 'creator' ) ;
#113 = PERSON_AND_ORGANIZATION ( #85, #88 ) ;
#114 = EDGE_CURVE ( 'NONE', #178, #99, #147, .T. ) ;
#115 = PERSON_AND_ORGANIZATION_ROLE ( 'design_supplier' ) ;
#116 = VECTOR ( 'NONE', #159, 1000.000000000000000 ) ;
#117 = EDGE_LOOP ( 'NONE', ( #199, #47, #104, #225 ) ) ;
#118 = CARTESIAN_POINT ( 'NONE',  ( -75.99999999999995737, -76.00000000000001421, 0.000000000000000000 ) ) ;
#119 = ORIENTED_EDGE ( 'NONE', *, *, #40, .T. ) ;
#120 = PRODUCT_DEFINITION ( 'UNKNOWN', '', #34, #4 ) ;
#121 = FACE_OUTER_BOUND ( 'NONE', #117, .T. ) ;
#122 = ADVANCED_BREP_SHAPE_REPRESENTATION ( 'FE-460-1-F1', ( #108, #232 ), #29 ) ;
#123 = LOCAL_TIME ( 16, 21, 22.00000000000000000, #223 ) ;
#124 = DIRECTION ( 'NONE',  ( 1.000000000000000000, 0.000000000000000000, -0.000000000000000000 ) ) ;
#125 = DIRECTION ( 'NONE',  ( -1.000000000000000000, -9.130123557772672032E-17, 0.000000000000000000 ) ) ;
#126 = EDGE_CURVE ( 'NONE', #178, #140, #35, .T. ) ;
#127 = FACE_OUTER_BOUND ( 'NONE', #228, .T. ) ;
#128 = ORIENTED_EDGE ( 'NONE', *, *, #76, .T. ) ;
#129 = CARTESIAN_POINT ( 'NONE',  ( -75.99999999999995737, 76.00000000000001421, 5.000000000000000000 ) ) ;
#130 = DATE_AND_TIME ( #58, #123 ) ;
#131 = APPROVAL_DATE_TIME ( #130, #57 ) ;
#132 = LOCAL_TIME ( 16, 21, 22.00000000000000000, #59 ) ;
#133 = PERSON_AND_ORGANIZATION ( #85, #88 ) ;
#134 = EDGE_CURVE ( 'NONE', #181, #142, #216, .T. ) ;
#135 = DATE_TIME_ROLE ( 'creation_date' ) ;
#136 = AXIS2_PLACEMENT_3D ( 'NONE', #90, #166, #234 ) ;
#137 = CC_DESIGN_DATE_AND_TIME_ASSIGNMENT ( #22, #135, ( #120 ) ) ;
#138 = DIRECTION ( 'NONE',  ( -1.000000000000000000, -9.130123557772674497E-17, 0.000000000000000000 ) ) ;
#139 = DIRECTION ( 'NONE',  ( -0.000000000000000000, -0.000000000000000000, -1.000000000000000000 ) ) ;
#140 = VERTEX_POINT ( 'NONE', #70 ) ;
#141 = LOCAL_TIME ( 16, 21, 22.00000000000000000, #110 ) ;
#142 = VERTEX_POINT ( 'NONE', #92 ) ;
#143 = APPLICATION_CONTEXT ( 'configuration controlled 3d designs of mechanical parts and assemblies' ) ;
#144 =( NAMED_UNIT ( * ) PLANE_ANGLE_UNIT ( ) SI_UNIT ( $, .RADIAN. ) );
#145 = CC_DESIGN_SECURITY_CLASSIFICATION ( #10, ( #34 ) ) ;
#146 = CC_DESIGN_PERSON_AND_ORGANIZATION_ASSIGNMENT ( #191, #45, ( #10 ) ) ;
#147 = LINE ( 'NONE', #71, #62 ) ;
#148 = VERTEX_POINT ( 'NONE', #106 ) ;
#149 = CARTESIAN_POINT ( 'NONE',  ( 0.000000000000000000, 0.000000000000000000, 5.000000000000000000 ) ) ;
#150 = VERTEX_POINT ( 'NONE', #151 ) ;
#151 = CARTESIAN_POINT ( 'NONE',  ( -75.99999999999995737, -76.00000000000001421, 5.000000000000000000 ) ) ;
#152 = CLOSED_SHELL ( 'NONE', ( #188, #169, #211, #192, #207, #233 ) ) ;
#153 = PERSON_AND_ORGANIZATION_ROLE ( 'design_owner' ) ;
#154 = APPROVAL_STATUS ( 'not_yet_approved' ) ;
#155 = APPROVAL_ROLE ( '' ) ;
#156 = APPROVAL_DATE_TIME ( #172, #80 ) ;
#157 = VECTOR ( 'NONE', #51, 1000.000000000000000 ) ;
#158 = LINE ( 'NONE', #83, #25 ) ;
#159 = DIRECTION ( 'NONE',  ( 0.000000000000000000, -1.000000000000000000, 0.000000000000000000 ) ) ;
#160 = EDGE_CURVE ( 'NONE', #217, #142, #168, .T. ) ;
#161 = ORIENTED_EDGE ( 'NONE', *, *, #23, .T. ) ;
#162 = CARTESIAN_POINT ( 'NONE',  ( -75.99999999999995737, -76.00000000000001421, 5.000000000000000000 ) ) ;
#163 = PLANE ( 'NONE',  #187 ) ;
#164 = PLANE ( 'NONE',  #190 ) ;
#165 = ORIENTED_EDGE ( 'NONE', *, *, #48, .F. ) ;
#166 = DIRECTION ( 'NONE',  ( 9.130123557772674497E-17, -1.000000000000000000, 0.000000000000000000 ) ) ;
#167 = ORIENTED_EDGE ( 'NONE', *, *, #160, .T. ) ;
#168 = LINE ( 'NONE', #129, #105 ) ;
#169 = ADVANCED_FACE ( 'NONE', ( #17 ), #213, .F. ) ;
#170 = APPLICATION_CONTEXT ( 'configuration controlled 3d designs of mechanical parts and assemblies' ) ;
#171 = VECTOR ( 'NONE', #195, 1000.000000000000000 ) ;
#172 = DATE_AND_TIME ( #204, #132 ) ;
#173 = APPROVAL_STATUS ( 'not_yet_approved' ) ;
#174 = SHAPE_DEFINITION_REPRESENTATION ( #72, #122 ) ;
#175 = LOCAL_TIME ( 16, 21, 22.00000000000000000, #19 ) ;
#176 = APPROVAL_ROLE ( '' ) ;
#177 = EDGE_LOOP ( 'NONE', ( #91, #165, #81, #13 ) ) ;
#178 = VERTEX_POINT ( 'NONE', #236 ) ;
#179 = CARTESIAN_POINT ( 'NONE',  ( -75.99999999999995737, 76.00000000000001421, 5.000000000000000000 ) ) ;
#180 = DIRECTION ( 'NONE',  ( -1.826024711554533420E-16, 1.000000000000000000, 0.000000000000000000 ) ) ;
#181 = VERTEX_POINT ( 'NONE', #198 ) ;
#182 = DIRECTION ( 'NONE',  ( 0.000000000000000000, -0.000000000000000000, 1.000000000000000000 ) ) ;
#183 = ORIENTED_EDGE ( 'NONE', *, *, #5, .F. ) ;
#184 = LOCAL_TIME ( 16, 21, 22.00000000000000000, #21 ) ;
#185 = DIRECTION ( 'NONE',  ( -0.000000000000000000, -0.000000000000000000, -1.000000000000000000 ) ) ;
#186 = CARTESIAN_POINT ( 'NONE',  ( 0.000000000000000000, 0.000000000000000000, 0.000000000000000000 ) ) ;
#187 = AXIS2_PLACEMENT_3D ( 'NONE', #149, #73, #124 ) ;
#188 = ADVANCED_FACE ( 'NONE', ( #127 ), #164, .F. ) ;
#189 = PERSON_AND_ORGANIZATION ( #85, #88 ) ;
#190 = AXIS2_PLACEMENT_3D ( 'NONE', #162, #103, #125 ) ;
#191 = PERSON_AND_ORGANIZATION ( #85, #88 ) ;
#192 = ADVANCED_FACE ( 'NONE', ( #39 ), #15, .F. ) ;
#193 = ORIENTED_EDGE ( 'NONE', *, *, #114, .T. ) ;
#194 = AXIS2_PLACEMENT_3D ( 'NONE', #52, #68, #231 ) ;
#195 = DIRECTION ( 'NONE',  ( 1.000000000000000000, 9.130123557772672032E-17, 0.000000000000000000 ) ) ;
#196 = DIRECTION ( 'NONE',  ( 1.000000000000000000, 9.130123557772672032E-17, 0.000000000000000000 ) ) ;
#197 = DIRECTION ( 'NONE',  ( -0.000000000000000000, -0.000000000000000000, -1.000000000000000000 ) ) ;
#198 = CARTESIAN_POINT ( 'NONE',  ( 75.99999999999995737, 76.00000000000002842, 0.000000000000000000 ) ) ;
#199 = ORIENTED_EDGE ( 'NONE', *, *, #134, .T. ) ;
#200 = CC_DESIGN_APPROVAL ( #57, ( #10 ) ) ;
#201 = DIRECTION ( 'NONE',  ( 1.000000000000000000, 0.000000000000000000, -0.000000000000000000 ) ) ;
#202 = UNCERTAINTY_MEASURE_WITH_UNIT (LENGTH_MEASURE( 1.000000000000000082E-05 ), #36, 'distance_accuracy_value', 'NONE');
#203 = APPROVAL_PERSON_ORGANIZATION ( #133, #100, #46 ) ;
#204 = CALENDAR_DATE ( 2023, 10, 8 ) ;
#205 = ORIENTED_EDGE ( 'NONE', *, *, #48, .T. ) ;
#206 = MECHANICAL_CONTEXT ( 'NONE', #143, 'mechanical' ) ;
#207 = ADVANCED_FACE ( 'NONE', ( #210 ), #163, .T. ) ;
#208 = ORIENTED_EDGE ( 'NONE', *, *, #114, .F. ) ;
#209 = DIRECTION ( 'NONE',  ( 0.000000000000000000, -1.000000000000000000, 0.000000000000000000 ) ) ;
#210 = FACE_OUTER_BOUND ( 'NONE', #214, .T. ) ;
#211 = ADVANCED_FACE ( 'NONE', ( #121 ), #37, .F. ) ;
#212 = ORIENTED_EDGE ( 'NONE', *, *, #94, .T. ) ;
#213 = PLANE ( 'NONE',  #194 ) ;
#214 = EDGE_LOOP ( 'NONE', ( #212, #50, #119, #161 ) ) ;
#215 = DIRECTION ( 'NONE',  ( -0.000000000000000000, -0.000000000000000000, -1.000000000000000000 ) ) ;
#216 = LINE ( 'NONE', #54, #157 ) ;
#217 = VERTEX_POINT ( 'NONE', #53 ) ;
#218 = PERSON_AND_ORGANIZATION ( #85, #88 ) ;
#219 = APPROVAL_DATE_TIME ( #78, #100 ) ;
#220 = PRODUCT ( 'FE-460-1-F1', 'FE-460-1-F1', '', ( #206 ) ) ;
#221 = CARTESIAN_POINT ( 'NONE',  ( 0.000000000000000000, 0.000000000000000000, 0.000000000000000000 ) ) ;
#222 = DATE_AND_TIME ( #26, #141 ) ;
#223 = COORDINATED_UNIVERSAL_TIME_OFFSET ( 9, 0, .AHEAD. ) ;
#224 = AXIS2_PLACEMENT_3D ( 'NONE', #179, #201, #235 ) ;
#225 = ORIENTED_EDGE ( 'NONE', *, *, #64, .T. ) ;
#226 = LINE ( 'NONE', #33, #42 ) ;
#227 = VECTOR ( 'NONE', #138, 1000.000000000000000 ) ;
#228 = EDGE_LOOP ( 'NONE', ( #128, #208, #98, #2 ) ) ;
#229 = CC_DESIGN_DATE_AND_TIME_ASSIGNMENT ( #222, #24, ( #10 ) ) ;
#230 = CARTESIAN_POINT ( 'NONE',  ( 75.99999999999998579, -76.00000000000000000, 5.000000000000000000 ) ) ;
#231 = DIRECTION ( 'NONE',  ( 1.826024711554533420E-16, -1.000000000000000000, 0.000000000000000000 ) ) ;
#232 = AXIS2_PLACEMENT_3D ( 'NONE', #221, #3, #79 ) ;
#233 = ADVANCED_FACE ( 'NONE', ( #74 ), #107, .F. ) ;
#234 = DIRECTION ( 'NONE',  ( 1.000000000000000000, 9.130123557772674497E-17, 0.000000000000000000 ) ) ;
#235 = DIRECTION ( 'NONE',  ( -0.000000000000000000, 0.000000000000000000, -1.000000000000000000 ) ) ;
#236 = CARTESIAN_POINT ( 'NONE',  ( 75.99999999999998579, -76.00000000000000000, 5.000000000000000000 ) ) ;
#237 = VECTOR ( 'NONE', #139, 1000.000000000000000 ) ;
ENDSEC;
END-ISO-10303-21;
