ISO-10303-21;
HEADER;
FILE_DESCRIPTION (( 'STEP AP203' ),
    '1' );
FILE_NAME ('sone3D.STEP',
    '2017-04-07T08:24:22',
    ( '' ),
    ( '' ),
    'SwSTEP 2.0',
    'SolidWorks 2014',
    '' );
FILE_SCHEMA (( 'CONFIG_CONTROL_DESIGN' ));
ENDSEC;

DATA;
#1 = ORIENTED_EDGE ( 'NONE', *, *, #172, .T. ) ;
#2 = FACE_OUTER_BOUND ( 'NONE', #263, .T. ) ;
#3 = ORGANIZATION ( 'UNSPECIFIED', 'UNSPECIFIED', '' ) ;
#4 = CARTESIAN_POINT ( 'NONE',  ( 8.400000000000000400, 15.50000000000000000, -10.00000000000000000 ) ) ;
#5 = PERSON_AND_ORGANIZATION ( #74, #3 ) ;
#6 = CARTESIAN_POINT ( 'NONE',  ( -8.399999999999998600, -15.50000000000000000, -10.00000000000000000 ) ) ;
#7 = ORIENTED_EDGE ( 'NONE', *, *, #405, .F. ) ;
#8 = EDGE_CURVE ( 'NONE', #181, #95, #37, .T. ) ;
#9 = CC_DESIGN_PERSON_AND_ORGANIZATION_ASSIGNMENT ( #39, #214, ( #417 ) ) ;
#10 = DESIGN_CONTEXT ( 'detailed design', #80, 'design' ) ;
#11 = AXIS2_PLACEMENT_3D ( 'NONE', #77, #79, #343 ) ;
#12 = APPROVAL_ROLE ( '' ) ;
#13 = ORIENTED_EDGE ( 'NONE', *, *, #268, .T. ) ;
#14 = DIRECTION ( 'NONE',  ( -0.2357022603955158900, 0.2357022603955159500, -0.9428090415820632500 ) ) ;
#15 = DIRECTION ( 'NONE',  ( 0.0000000000000000000, -0.0000000000000000000, -1.000000000000000000 ) ) ;
#16 = VECTOR ( 'NONE', #354, 1000.000000000000000 ) ;
#17 = APPROVAL_PERSON_ORGANIZATION ( #380, #68, #375 ) ;
#18 = DIRECTION ( 'NONE',  ( -1.000000000000000000, -0.0000000000000000000, -0.0000000000000000000 ) ) ;
#19 = AXIS2_PLACEMENT_3D ( 'NONE', #191, #93, #291 ) ;
#20 = DATE_AND_TIME ( #197, #371 ) ;
#21 = CC_DESIGN_PERSON_AND_ORGANIZATION_ASSIGNMENT ( #66, #277, ( #339 ) ) ;
#22 = ORIENTED_EDGE ( 'NONE', *, *, #415, .T. ) ;
#23 = DIRECTION ( 'NONE',  ( 0.0000000000000000000, -0.2425356250363331100, -0.9701425001453318800 ) ) ;
#24 = DATE_AND_TIME ( #288, #126 ) ;
#25 = LINE ( 'NONE', #121, #169 ) ;
#26 = ORIENTED_EDGE ( 'NONE', *, *, #287, .T. ) ;
#27 = CARTESIAN_POINT ( 'NONE',  ( 8.400000000000009200, -15.50000000000000200, -3.999999999999996400 ) ) ;
#28 = VECTOR ( 'NONE', #186, 1000.000000000000000 ) ;
#29 = ADVANCED_FACE ( 'NONE', ( #368 ), #262, .F. ) ;
#30 = ADVANCED_FACE ( 'NONE', ( #232 ), #58, .F. ) ;
#31 = LOCAL_TIME ( 17, 24, 22.00000000000000000, #353 ) ;
#32 = ORIENTED_EDGE ( 'NONE', *, *, #143, .T. ) ;
#33 = EDGE_LOOP ( 'NONE', ( #190, #270, #26, #234 ) ) ;
#34 = EDGE_CURVE ( 'NONE', #292, #323, #257, .T. ) ;
#35 = VECTOR ( 'NONE', #108, 1000.000000000000000 ) ;
#36 = APPROVAL ( #147, 'UNSPECIFIED' ) ;
#37 = LINE ( 'NONE', #159, #302 ) ;
#38 = ORIENTED_EDGE ( 'NONE', *, *, #221, .T. ) ;
#39 = PERSON_AND_ORGANIZATION ( #74, #3 ) ;
#40 =( NAMED_UNIT ( * ) PLANE_ANGLE_UNIT ( ) SI_UNIT ( $, .RADIAN. ) );
#41 = ORIENTED_EDGE ( 'NONE', *, *, #346, .T. ) ;
#42 = ORIENTED_EDGE ( 'NONE', *, *, #303, .T. ) ;
#43 = PRODUCT_DEFINITION ( 'UNKNOWN', '', #335, #10 ) ;
#44 = DIRECTION ( 'NONE',  ( 1.000000000000000000, 0.0000000000000000000, 0.0000000000000000000 ) ) ;
#45 = COORDINATED_UNIVERSAL_TIME_OFFSET ( 9, 0, .AHEAD. ) ;
#46 = VECTOR ( 'NONE', #282, 1000.000000000000000 ) ;
#47 = DIRECTION ( 'NONE',  ( 0.0000000000000000000, 0.0000000000000000000, 1.000000000000000000 ) ) ;
#48 = APPLICATION_PROTOCOL_DEFINITION ( 'international standard', 'config_control_design', 1994, #80 ) ;
#49 = LINE ( 'NONE', #195, #72 ) ;
#50 = VERTEX_POINT ( 'NONE', #320 ) ;
#51 = CARTESIAN_POINT ( 'NONE',  ( -8.399999999999995000, -15.50000000000000200, -4.000000000000000000 ) ) ;
#52 = CARTESIAN_POINT ( 'NONE',  ( 7.400000000000007500, -14.49999999999999800, -10.00000000000000000 ) ) ;
#53 = CARTESIAN_POINT ( 'NONE',  ( -8.400000000000000400, 15.49999999999999800, -6.000000000000000000 ) ) ;
#54 = ORIENTED_EDGE ( 'NONE', *, *, #34, .F. ) ;
#55 = CARTESIAN_POINT ( 'NONE',  ( 8.400000000000009200, 15.49999999999999800, -4.000000000000000000 ) ) ;
#56 = PERSON_AND_ORGANIZATION ( #74, #3 ) ;
#57 = FACE_OUTER_BOUND ( 'NONE', #113, .T. ) ;
#58 = PLANE ( 'NONE',  #104 ) ;
#59 = DIRECTION ( 'NONE',  ( -0.2357022603955157600, -0.2357022603955159500, 0.9428090415820632500 ) ) ;
#60 = EDGE_CURVE ( 'NONE', #181, #85, #267, .T. ) ;
#61 = PLANE ( 'NONE',  #19 ) ;
#62 = PLANE ( 'NONE',  #297 ) ;
#63 = CARTESIAN_POINT ( 'NONE',  ( -7.400000000000003900, 14.49999999999999500, -10.00000000000000000 ) ) ;
#64 = ORIENTED_EDGE ( 'NONE', *, *, #8, .F. ) ;
#65 = DIRECTION ( 'NONE',  ( 1.000000000000000000, 0.0000000000000000000, 0.0000000000000000000 ) ) ;
#66 = PERSON_AND_ORGANIZATION ( #74, #3 ) ;
#67 = AXIS2_PLACEMENT_3D ( 'NONE', #413, #416, #65 ) ;
#68 = APPROVAL ( #110, 'UNSPECIFIED' ) ;
#69 = FACE_OUTER_BOUND ( 'NONE', #299, .T. ) ;
#70 = VECTOR ( 'NONE', #153, 1000.000000000000000 ) ;
#71 = ADVANCED_FACE ( 'NONE', ( #334 ), #134, .T. ) ;
#72 = VECTOR ( 'NONE', #226, 1000.000000000000000 ) ;
#73 = EDGE_LOOP ( 'NONE', ( #175, #227, #210, #107 ) ) ;
#74 = PERSON ( 'UNSPECIFIED', 'UNSPECIFIED', 'UNSPECIFIED', ('UNSPECIFIED'), ('UNSPECIFIED'), ('UNSPECIFIED') ) ;
#75 = ORIENTED_EDGE ( 'NONE', *, *, #81, .T. ) ;
#76 = VECTOR ( 'NONE', #321, 1000.000000000000000 ) ;
#77 = CARTESIAN_POINT ( 'NONE',  ( 7.400000000000007500, -15.49999999999999800, 0.0000000000000000000 ) ) ;
#78 = FACE_OUTER_BOUND ( 'NONE', #429, .T. ) ;
#79 = DIRECTION ( 'NONE',  ( -0.9701425001453319900, -2.003486869101119300E-016, -0.2425356250363330000 ) ) ;
#80 = APPLICATION_CONTEXT ( 'configuration controlled 3d designs of mechanical parts and assemblies' ) ;
#81 = EDGE_CURVE ( 'NONE', #418, #85, #225, .T. ) ;
#82 = ORIENTED_EDGE ( 'NONE', *, *, #34, .T. ) ;
#83 = SECURITY_CLASSIFICATION_LEVEL ( 'unclassified' ) ;
#84 = DIRECTION ( 'NONE',  ( -0.2357022603955158900, 0.2357022603955159500, -0.9428090415820632500 ) ) ;
#85 = VERTEX_POINT ( 'NONE', #131 ) ;
#86 = CARTESIAN_POINT ( 'NONE',  ( -7.399999999999995000, -15.50000000000000200, 0.0000000000000000000 ) ) ;
#87 = VECTOR ( 'NONE', #59, 1000.000000000000200 ) ;
#88 = VECTOR ( 'NONE', #253, 1000.000000000000000 ) ;
#89 = CC_DESIGN_APPROVAL ( #68, ( #43 ) ) ;
#90 = CARTESIAN_POINT ( 'NONE',  ( 7.455555555555562800, -14.55555555555555500, -0.2222222222222220400 ) ) ;
#91 = DIRECTION ( 'NONE',  ( -0.9701425001453319900, -2.003486869101119300E-016, 0.2425356250363330000 ) ) ;
#92 = VERTEX_POINT ( 'NONE', #63 ) ;
#93 = DIRECTION ( 'NONE',  ( 0.0000000000000000000, 1.000000000000000000, 0.0000000000000000000 ) ) ;
#94 = DIRECTION ( 'NONE',  ( -1.000000000000000000, -1.119176436114069100E-016, 0.0000000000000000000 ) ) ;
#95 = VERTEX_POINT ( 'NONE', #325 ) ;
#96 = ORIENTED_EDGE ( 'NONE', *, *, #172, .F. ) ;
#97 = CARTESIAN_POINT ( 'NONE',  ( 5.733333333333335200, 12.83333333333332700, 6.666666666666667000 ) ) ;
#98 = APPROVAL_PERSON_ORGANIZATION ( #273, #278, #12 ) ;
#99 = ORIENTED_EDGE ( 'NONE', *, *, #415, .F. ) ;
#100 = EDGE_CURVE ( 'NONE', #85, #292, #49, .T. ) ;
#101 = VECTOR ( 'NONE', #84, 1000.000000000000200 ) ;
#102 = DIRECTION ( 'NONE',  ( 1.000000000000000000, 0.0000000000000000000, 0.0000000000000000000 ) ) ;
#103 = PERSON_AND_ORGANIZATION ( #74, #3 ) ;
#104 = AXIS2_PLACEMENT_3D ( 'NONE', #27, #425, #356 ) ;
#105 = CC_DESIGN_PERSON_AND_ORGANIZATION_ASSIGNMENT ( #381, #146, ( #43 ) ) ;
#106 = CARTESIAN_POINT ( 'NONE',  ( 8.400000000000009200, -15.50000000000000200, -3.999999999999996400 ) ) ;
#107 = ORIENTED_EDGE ( 'NONE', *, *, #260, .F. ) ;
#108 = DIRECTION ( 'NONE',  ( -1.000000000000000000, -0.0000000000000000000, -0.0000000000000000000 ) ) ;
#109 = AXIS2_PLACEMENT_3D ( 'NONE', #414, #378, #15 ) ;
#110 = APPROVAL_STATUS ( 'not_yet_approved' ) ;
#111 = FACE_OUTER_BOUND ( 'NONE', #145, .T. ) ;
#112 = VECTOR ( 'NONE', #328, 1000.000000000000200 ) ;
#113 = EDGE_LOOP ( 'NONE', ( #330, #75, #271, #82 ) ) ;
#114 = CARTESIAN_POINT ( 'NONE',  ( -5.733333333333333400, 12.83333333333332700, 6.666666666666670500 ) ) ;
#115 = CARTESIAN_POINT ( 'NONE',  ( 7.400000000000007500, -15.49999999999999800, -10.00000000000000000 ) ) ;
#116 = CARTESIAN_POINT ( 'NONE',  ( 8.400000000000009200, 15.49999999999999800, -4.000000000000000000 ) ) ;
#117 = LINE ( 'NONE', #409, #133 ) ;
#118 = LOCAL_TIME ( 17, 24, 22.00000000000000000, #150 ) ;
#119 = CARTESIAN_POINT ( 'NONE',  ( 7.400000000000000400, 14.49999999999999500, 4.336808689942017700E-016 ) ) ;
#120 = DIRECTION ( 'NONE',  ( -1.000000000000000000, -0.0000000000000000000, -0.0000000000000000000 ) ) ;
#121 = CARTESIAN_POINT ( 'NONE',  ( -8.399999999999995000, -15.50000000000000200, -6.000000000000000000 ) ) ;
#122 = CARTESIAN_POINT ( 'NONE',  ( -7.400000000000003900, 14.49999999999999500, 0.0000000000000000000 ) ) ;
#123 = ORIENTED_EDGE ( 'NONE', *, *, #8, .T. ) ;
#124 = ORIENTED_EDGE ( 'NONE', *, *, #367, .T. ) ;
#125 = CARTESIAN_POINT ( 'NONE',  ( 8.400000000000009200, -14.50000000000000000, 8.673617379884035500E-016 ) ) ;
#126 = LOCAL_TIME ( 17, 24, 22.00000000000000000, #45 ) ;
#127 = LINE ( 'NONE', #276, #35 ) ;
#128 = CARTESIAN_POINT ( 'NONE',  ( -7.400000000000000400, -14.50000000000000000, -9.999999999999991100 ) ) ;
#129 = EDGE_CURVE ( 'NONE', #305, #403, #310, .T. ) ;
#130 = ORIENTED_EDGE ( 'NONE', *, *, #100, .F. ) ;
#131 = CARTESIAN_POINT ( 'NONE',  ( 8.400000000000009200, -15.50000000000000200, -3.999999999999996400 ) ) ;
#132 = CARTESIAN_POINT ( 'NONE',  ( 8.400000000000009200, -15.50000000000000200, -5.999999999999992900 ) ) ;
#133 = VECTOR ( 'NONE', #289, 1000.000000000000200 ) ;
#134 = PLANE ( 'NONE',  #67 ) ;
#135 = ADVANCED_FACE ( 'NONE', ( #322 ), #61, .T. ) ;
#136 = APPROVAL_DATE_TIME ( #24, #36 ) ;
#137 = VECTOR ( 'NONE', #261, 1000.000000000000300 ) ;
#138 = ORIENTED_EDGE ( 'NONE', *, *, #260, .T. ) ;
#139 = SHAPE_DEFINITION_REPRESENTATION ( #203, #248 ) ;
#140 = DIRECTION ( 'NONE',  ( 0.0000000000000000000, 0.0000000000000000000, 1.000000000000000000 ) ) ;
#141 = VECTOR ( 'NONE', #358, 1000.000000000000000 ) ;
#142 = PLANE ( 'NONE',  #11 ) ;
#143 = EDGE_CURVE ( 'NONE', #95, #292, #204, .T. ) ;
#144 = PRODUCT_RELATED_PRODUCT_CATEGORY ( 'detail', '', ( #339 ) ) ;
#145 = EDGE_LOOP ( 'NONE', ( #251, #372, #41, #338 ) ) ;
#146 = PERSON_AND_ORGANIZATION_ROLE ( 'creator' ) ;
#147 = APPROVAL_STATUS ( 'not_yet_approved' ) ;
#148 = CARTESIAN_POINT ( 'NONE',  ( -8.400000000000000400, 15.50000000000000000, -10.00000000000000000 ) ) ;
#149 = CARTESIAN_POINT ( 'NONE',  ( 8.400000000000009200, -15.50000000000000200, -5.999999999999992900 ) ) ;
#150 = COORDINATED_UNIVERSAL_TIME_OFFSET ( 9, 0, .AHEAD. ) ;
#151 = DIRECTION ( 'NONE',  ( -2.065146995210484700E-016, 1.000000000000000000, -0.0000000000000000000 ) ) ;
#152 = CARTESIAN_POINT ( 'NONE',  ( 8.400000000000009200, 15.49999999999999800, -4.000000000000000000 ) ) ;
#153 = DIRECTION ( 'NONE',  ( -2.065146995210484700E-016, 1.000000000000000000, -0.0000000000000000000 ) ) ;
#154 = ORIENTED_EDGE ( 'NONE', *, *, #60, .T. ) ;
#155 = DIRECTION ( 'NONE',  ( -2.065146995210484700E-016, 1.000000000000000000, -0.0000000000000000000 ) ) ;
#156 = AXIS2_PLACEMENT_3D ( 'NONE', #327, #164, #421 ) ;
#157 = LINE ( 'NONE', #51, #70 ) ;
#158 = CC_DESIGN_PERSON_AND_ORGANIZATION_ASSIGNMENT ( #5, #312, ( #335 ) ) ;
#159 = CARTESIAN_POINT ( 'NONE',  ( 8.400000000000007500, -15.49999999999999800, -6.000000000000000000 ) ) ;
#160 = VECTOR ( 'NONE', #219, 1000.000000000000200 ) ;
#161 = AXIS2_PLACEMENT_3D ( 'NONE', #386, #91, #259 ) ;
#162 = EDGE_LOOP ( 'NONE', ( #205, #361, #99, #174 ) ) ;
#163 = PLANE ( 'NONE',  #246 ) ;
#164 = DIRECTION ( 'NONE',  ( 0.9701425001453319900, 2.003486869101119300E-016, 0.2425356250363330000 ) ) ;
#165 = ORIENTED_EDGE ( 'NONE', *, *, #212, .F. ) ;
#166 = ADVANCED_FACE ( 'NONE', ( #78 ), #385, .T. ) ;
#167 = ORIENTED_EDGE ( 'NONE', *, *, #346, .F. ) ;
#168 = FACE_OUTER_BOUND ( 'NONE', #73, .T. ) ;
#169 = VECTOR ( 'NONE', #347, 1000.000000000000000 ) ;
#170 = VECTOR ( 'NONE', #391, 1000.000000000000200 ) ;
#171 = ORIENTED_EDGE ( 'NONE', *, *, #193, .F. ) ;
#172 = EDGE_CURVE ( 'NONE', #50, #95, #213, .T. ) ;
#173 = CC_DESIGN_DATE_AND_TIME_ASSIGNMENT ( #200, #376, ( #417 ) ) ;
#174 = ORIENTED_EDGE ( 'NONE', *, *, #81, .F. ) ;
#175 = ORIENTED_EDGE ( 'NONE', *, *, #307, .F. ) ;
#176 = APPLICATION_CONTEXT ( 'configuration controlled 3d designs of mechanical parts and assemblies' ) ;
#177 = CARTESIAN_POINT ( 'NONE',  ( -7.399999999999995000, -14.50000000000000000, -1.355252715606880500E-017 ) ) ;
#178 = ORIENTED_EDGE ( 'NONE', *, *, #373, .F. ) ;
#179 = CARTESIAN_POINT ( 'NONE',  ( 7.400000000000006600, -14.50000000000000000, 8.267041565201971300E-016 ) ) ;
#180 = CARTESIAN_POINT ( 'NONE',  ( 8.400000000000009200, -15.50000000000000200, -5.999999999999992900 ) ) ;
#181 = VERTEX_POINT ( 'NONE', #132 ) ;
#182 = DIRECTION ( 'NONE',  ( -0.2425356250363330000, 0.0000000000000000000, -0.9701425001453319900 ) ) ;
#183 = LINE ( 'NONE', #184, #16 ) ;
#184 = CARTESIAN_POINT ( 'NONE',  ( -7.399999999999995000, -15.50000000000000200, -10.00000000000000000 ) ) ;
#185 = APPROVAL_DATE_TIME ( #397, #68 ) ;
#186 = DIRECTION ( 'NONE',  ( -1.000000000000000000, -0.0000000000000000000, -0.0000000000000000000 ) ) ;
#187 = APPROVAL_DATE_TIME ( #285, #278 ) ;
#188 = DIRECTION ( 'NONE',  ( 0.0000000000000000000, 0.0000000000000000000, 1.000000000000000000 ) ) ;
#189 = CARTESIAN_POINT ( 'NONE',  ( -7.455555555555551300, -14.55555555555555400, -9.777777777777776800 ) ) ;
#190 = ORIENTED_EDGE ( 'NONE', *, *, #333, .F. ) ;
#191 = CARTESIAN_POINT ( 'NONE',  ( -8.400000000000000400, 15.50000000000000000, -10.00000000000000000 ) ) ;
#192 = CARTESIAN_POINT ( 'NONE',  ( 7.400000000000007500, -15.49999999999999800, 0.0000000000000000000 ) ) ;
#193 = EDGE_CURVE ( 'NONE', #292, #215, #281, .T. ) ;
#194 = LINE ( 'NONE', #114, #101 ) ;
#195 = CARTESIAN_POINT ( 'NONE',  ( 8.400000000000007500, -15.49999999999999800, -4.000000000000000000 ) ) ;
#196 = VERTEX_POINT ( 'NONE', #128 ) ;
#197 = CALENDAR_DATE ( 2017, 7, 4 ) ;
#198 = CC_DESIGN_DATE_AND_TIME_ASSIGNMENT ( #20, #345, ( #43 ) ) ;
#199 = ADVANCED_FACE ( 'NONE', ( #379 ), #62, .F. ) ;
#200 = DATE_AND_TIME ( #301, #306 ) ;
#201 = LINE ( 'NONE', #115, #341 ) ;
#202 = AXIS2_PLACEMENT_3D ( 'NONE', #149, #412, #387 ) ;
#203 = PRODUCT_DEFINITION_SHAPE ( 'NONE', 'NONE',  #43 ) ;
#204 = LINE ( 'NONE', #360, #374 ) ;
#205 = ORIENTED_EDGE ( 'NONE', *, *, #242, .T. ) ;
#206 = VECTOR ( 'NONE', #155, 1000.000000000000000 ) ;
#207 = APPLICATION_PROTOCOL_DEFINITION ( 'international standard', 'config_control_design', 1994, #176 ) ;
#208 = COORDINATED_UNIVERSAL_TIME_OFFSET ( 9, 0, .AHEAD. ) ;
#209 = DIRECTION ( 'NONE',  ( 1.000000000000000000, -1.119176436114069100E-016, 0.0000000000000000000 ) ) ;
#210 = ORIENTED_EDGE ( 'NONE', *, *, #355, .T. ) ;
#211 = VERTEX_POINT ( 'NONE', #52 ) ;
#212 = EDGE_CURVE ( 'NONE', #350, #92, #117, .T. ) ;
#213 = LINE ( 'NONE', #249, #160 ) ;
#214 = PERSON_AND_ORGANIZATION_ROLE ( 'classification_officer' ) ;
#215 = VERTEX_POINT ( 'NONE', #252 ) ;
#216 = CARTESIAN_POINT ( 'NONE',  ( 8.400000000000009200, -14.50000000000000000, -9.999999999999992900 ) ) ;
#217 = CALENDAR_DATE ( 2017, 7, 4 ) ;
#218 = PLANE ( 'NONE',  #161 ) ;
#219 = DIRECTION ( 'NONE',  ( 0.2357022603955157600, 0.2357022603955159500, 0.9428090415820632500 ) ) ;
#220 = APPROVAL_PERSON_ORGANIZATION ( #56, #36, #279 ) ;
#221 = EDGE_CURVE ( 'NONE', #418, #323, #230, .T. ) ;
#222 = CARTESIAN_POINT ( 'NONE',  ( -7.455555555555551300, -14.55555555555555500, -0.2222222222222227100 ) ) ;
#223 = AXIS2_PLACEMENT_3D ( 'NONE', #4, #209, #399 ) ;
#224 = LINE ( 'NONE', #148, #46 ) ;
#225 = LINE ( 'NONE', #90, #137 ) ;
#226 = DIRECTION ( 'NONE',  ( -2.065146995210484700E-016, 1.000000000000000000, -0.0000000000000000000 ) ) ;
#227 = ORIENTED_EDGE ( 'NONE', *, *, #324, .F. ) ;
#228 = CARTESIAN_POINT ( 'NONE',  ( -8.400000000000000400, 15.50000000000000000, -10.00000000000000000 ) ) ;
#229 = ORIENTED_EDGE ( 'NONE', *, *, #212, .T. ) ;
#230 = LINE ( 'NONE', #192, #206 ) ;
#231 = VECTOR ( 'NONE', #18, 1000.000000000000000 ) ;
#232 = FACE_OUTER_BOUND ( 'NONE', #162, .T. ) ;
#233 = EDGE_CURVE ( 'NONE', #95, #350, #254, .T. ) ;
#234 = ORIENTED_EDGE ( 'NONE', *, *, #268, .F. ) ;
#235 = CC_DESIGN_PERSON_AND_ORGANIZATION_ASSIGNMENT ( #103, #404, ( #335 ) ) ;
#236 = VERTEX_POINT ( 'NONE', #122 ) ;
#237 = EDGE_LOOP ( 'NONE', ( #130, #362, #123, #32 ) ) ;
#238 =( NAMED_UNIT ( * ) SI_UNIT ( $, .STERADIAN. ) SOLID_ANGLE_UNIT ( ) );
#239 = FACE_OUTER_BOUND ( 'NONE', #245, .T. ) ;
#240 = VECTOR ( 'NONE', #14, 1000.000000000000200 ) ;
#241 = DIRECTION ( 'NONE',  ( -1.000000000000000000, -0.0000000000000000000, -0.0000000000000000000 ) ) ;
#242 = EDGE_CURVE ( 'NONE', #418, #403, #317, .T. ) ;
#243 = CC_DESIGN_APPROVAL ( #36, ( #417 ) ) ;
#244 = CARTESIAN_POINT ( 'NONE',  ( 0.0000000000000000000, 0.0000000000000000000, -10.00000000000000000 ) ) ;
#245 = EDGE_LOOP ( 'NONE', ( #64, #329, #311, #1 ) ) ;
#246 = AXIS2_PLACEMENT_3D ( 'NONE', #116, #406, #377 ) ;
#247 = APPROVAL_STATUS ( 'not_yet_approved' ) ;
#248 = ADVANCED_BREP_SHAPE_REPRESENTATION ( 'sone3D', ( #410, #428 ), #340 ) ;
#249 = CARTESIAN_POINT ( 'NONE',  ( 5.733333333333335200, 12.83333333333332700, -16.66666666666666800 ) ) ;
#250 = ORIENTED_EDGE ( 'NONE', *, *, #367, .F. ) ;
#251 = ORIENTED_EDGE ( 'NONE', *, *, #303, .F. ) ;
#252 = CARTESIAN_POINT ( 'NONE',  ( -8.400000000000000400, 15.49999999999999800, -4.000000000000000000 ) ) ;
#253 = DIRECTION ( 'NONE',  ( -1.000000000000000000, -0.0000000000000000000, -0.0000000000000000000 ) ) ;
#254 = LINE ( 'NONE', #408, #400 ) ;
#255 = VECTOR ( 'NONE', #47, 1000.000000000000000 ) ;
#256 = PLANE ( 'NONE',  #109 ) ;
#257 = LINE ( 'NONE', #97, #170 ) ;
#258 = EDGE_LOOP ( 'NONE', ( #344, #38, #357, #167 ) ) ;
#259 = DIRECTION ( 'NONE',  ( 0.2425356250363330000, 0.0000000000000000000, 0.9701425001453319900 ) ) ;
#260 = EDGE_CURVE ( 'NONE', #196, #365, #426, .T. ) ;
#261 = DIRECTION ( 'NONE',  ( 0.2357022603955158700, -0.2357022603955162000, -0.9428090415820632500 ) ) ;
#262 = PLANE ( 'NONE',  #156 ) ;
#263 = EDGE_LOOP ( 'NONE', ( #22, #7, #304, #154 ) ) ;
#264 = DIRECTION ( 'NONE',  ( 0.0000000000000000000, 0.0000000000000000000, 1.000000000000000000 ) ) ;
#265 = ADVANCED_FACE ( 'NONE', ( #2 ), #256, .T. ) ;
#266 = LINE ( 'NONE', #352, #141 ) ;
#267 = LINE ( 'NONE', #389, #395 ) ;
#268 = EDGE_CURVE ( 'NONE', #50, #92, #266, .T. ) ;
#269 = CC_DESIGN_SECURITY_CLASSIFICATION ( #417, ( #335 ) ) ;
#270 = ORIENTED_EDGE ( 'NONE', *, *, #307, .T. ) ;
#271 = ORIENTED_EDGE ( 'NONE', *, *, #100, .T. ) ;
#272 =( LENGTH_UNIT ( ) NAMED_UNIT ( * ) SI_UNIT ( .MILLI., .METRE. ) );
#273 = PERSON_AND_ORGANIZATION ( #74, #3 ) ;
#274 = PLANE ( 'NONE',  #363 ) ;
#275 = CLOSED_SHELL ( 'NONE', ( #166, #135, #422, #265, #424, #71, #29, #293, #392, #331, #296, #199, #295, #30 ) ) ;
#276 = CARTESIAN_POINT ( 'NONE',  ( 8.400000000000009200, 14.49999999999999600, 0.0000000000000000000 ) ) ;
#277 = PERSON_AND_ORGANIZATION_ROLE ( 'design_owner' ) ;
#278 = APPROVAL ( #247, 'UNSPECIFIED' ) ;
#279 = APPROVAL_ROLE ( '' ) ;
#280 = ORIENTED_EDGE ( 'NONE', *, *, #143, .F. ) ;
#281 = LINE ( 'NONE', #152, #28 ) ;
#282 = DIRECTION ( 'NONE',  ( 0.0000000000000000000, 0.0000000000000000000, 1.000000000000000000 ) ) ;
#283 = DIRECTION ( 'NONE',  ( 0.0000000000000000000, -0.9701425001453318800, 0.2425356250363331100 ) ) ;
#284 = CARTESIAN_POINT ( 'NONE',  ( -8.400000000000000400, -15.50000000000000200, -3.999999999999996400 ) ) ;
#285 = DATE_AND_TIME ( #364, #31 ) ;
#286 = ORIENTED_EDGE ( 'NONE', *, *, #388, .F. ) ;
#287 = EDGE_CURVE ( 'NONE', #196, #92, #183, .T. ) ;
#288 = CALENDAR_DATE ( 2017, 7, 4 ) ;
#289 = DIRECTION ( 'NONE',  ( 0.2357022603955158900, -0.2357022603955159500, -0.9428090415820632500 ) ) ;
#290 = VECTOR ( 'NONE', #241, 1000.000000000000000 ) ;
#291 = DIRECTION ( 'NONE',  ( 0.0000000000000000000, -0.0000000000000000000, 1.000000000000000000 ) ) ;
#292 = VERTEX_POINT ( 'NONE', #55 ) ;
#293 = ADVANCED_FACE ( 'NONE', ( #239 ), #218, .F. ) ;
#294 = DIRECTION ( 'NONE',  ( 1.119176436114069100E-016, -1.000000000000000000, 0.0000000000000000000 ) ) ;
#295 = ADVANCED_FACE ( 'NONE', ( #168 ), #319, .F. ) ;
#296 = ADVANCED_FACE ( 'NONE', ( #69 ), #163, .F. ) ;
#297 = AXIS2_PLACEMENT_3D ( 'NONE', #419, #283, #23 ) ;
#298 = COORDINATED_UNIVERSAL_TIME_OFFSET ( 9, 0, .AHEAD. ) ;
#299 = EDGE_LOOP ( 'NONE', ( #390, #178, #398, #54 ) ) ;
#300 = ORIENTED_EDGE ( 'NONE', *, *, #233, .F. ) ;
#301 = CALENDAR_DATE ( 2017, 7, 4 ) ;
#302 = VECTOR ( 'NONE', #359, 1000.000000000000000 ) ;
#303 = EDGE_CURVE ( 'NONE', #305, #215, #157, .T. ) ;
#304 = ORIENTED_EDGE ( 'NONE', *, *, #355, .F. ) ;
#305 = VERTEX_POINT ( 'NONE', #284 ) ;
#306 = LOCAL_TIME ( 17, 24, 22.00000000000000000, #298 ) ;
#307 = EDGE_CURVE ( 'NONE', #211, #196, #318, .T. ) ;
#308 = FACE_OUTER_BOUND ( 'NONE', #33, .T. ) ;
#309 = MECHANICAL_CONTEXT ( 'NONE', #176, 'mechanical' ) ;
#310 = LINE ( 'NONE', #222, #112 ) ;
#311 = ORIENTED_EDGE ( 'NONE', *, *, #333, .T. ) ;
#312 = PERSON_AND_ORGANIZATION_ROLE ( 'design_supplier' ) ;
#313 = UNCERTAINTY_MEASURE_WITH_UNIT (LENGTH_MEASURE( 1.000000000000000100E-005 ), #272, 'distance_accuracy_value', 'NONE');
#314 = DIRECTION ( 'NONE',  ( -2.065146995210484700E-016, 1.000000000000000000, -0.0000000000000000000 ) ) ;
#315 = PLANE ( 'NONE',  #420 ) ;
#316 = CARTESIAN_POINT ( 'NONE',  ( -8.400000000000000400, -15.50000000000000200, -5.999999999999992900 ) ) ;
#317 = LINE ( 'NONE', #125, #76 ) ;
#318 = LINE ( 'NONE', #216, #231 ) ;
#319 = PLANE ( 'NONE',  #202 ) ;
#320 = CARTESIAN_POINT ( 'NONE',  ( 7.400000000000000400, 14.49999999999999500, -10.00000000000000200 ) ) ;
#321 = DIRECTION ( 'NONE',  ( -1.000000000000000000, -0.0000000000000000000, -0.0000000000000000000 ) ) ;
#322 = FACE_OUTER_BOUND ( 'NONE', #348, .T. ) ;
#323 = VERTEX_POINT ( 'NONE', #119 ) ;
#324 = EDGE_CURVE ( 'NONE', #181, #211, #393, .T. ) ;
#325 = CARTESIAN_POINT ( 'NONE',  ( 8.400000000000000400, 15.50000000000000200, -6.000000000000000000 ) ) ;
#326 = CC_DESIGN_APPROVAL ( #278, ( #335 ) ) ;
#327 = CARTESIAN_POINT ( 'NONE',  ( -7.399999999999995000, -15.50000000000000200, -10.00000000000000000 ) ) ;
#328 = DIRECTION ( 'NONE',  ( 0.2357022603955157600, 0.2357022603955162300, 0.9428090415820632500 ) ) ;
#329 = ORIENTED_EDGE ( 'NONE', *, *, #324, .T. ) ;
#330 = ORIENTED_EDGE ( 'NONE', *, *, #221, .F. ) ;
#331 = ADVANCED_FACE ( 'NONE', ( #111 ), #315, .F. ) ;
#332 = LINE ( 'NONE', #106, #290 ) ;
#333 = EDGE_CURVE ( 'NONE', #211, #50, #201, .T. ) ;
#334 = FACE_OUTER_BOUND ( 'NONE', #258, .T. ) ;
#335 = PRODUCT_DEFINITION_FORMATION_WITH_SPECIFIED_SOURCE ( 'ANY', '', #339, .NOT_KNOWN. ) ;
#336 = EDGE_LOOP ( 'NONE', ( #300, #96, #13, #165 ) ) ;
#337 = ORIENTED_EDGE ( 'NONE', *, *, #388, .T. ) ;
#338 = ORIENTED_EDGE ( 'NONE', *, *, #373, .T. ) ;
#339 = PRODUCT ( 'sone3D', 'sone3D', '', ( #309 ) ) ;
#340 =( GEOMETRIC_REPRESENTATION_CONTEXT ( 3 ) GLOBAL_UNCERTAINTY_ASSIGNED_CONTEXT ( ( #313 ) ) GLOBAL_UNIT_ASSIGNED_CONTEXT ( ( #272, #40, #238 ) ) REPRESENTATION_CONTEXT ( 'NONE', 'WORKASPACE' ) );
#341 = VECTOR ( 'NONE', #314, 1000.000000000000000 ) ;
#342 = DIRECTION ( 'NONE',  ( -0.0000000000000000000, 0.0000000000000000000, 1.000000000000000000 ) ) ;
#343 = DIRECTION ( 'NONE',  ( -0.2425356250363330000, 0.0000000000000000000, 0.9701425001453319900 ) ) ;
#344 = ORIENTED_EDGE ( 'NONE', *, *, #242, .F. ) ;
#345 = DATE_TIME_ROLE ( 'creation_date' ) ;
#346 = EDGE_CURVE ( 'NONE', #403, #236, #411, .T. ) ;
#347 = DIRECTION ( 'NONE',  ( -2.065146995210484700E-016, 1.000000000000000000, -0.0000000000000000000 ) ) ;
#348 = EDGE_LOOP ( 'NONE', ( #396, #337, #171, #280 ) ) ;
#349 = CARTESIAN_POINT ( 'NONE',  ( -7.399999999999995000, -15.50000000000000200, 0.0000000000000000000 ) ) ;
#350 = VERTEX_POINT ( 'NONE', #53 ) ;
#351 = CARTESIAN_POINT ( 'NONE',  ( 7.455555555555562800, -14.55555555555555400, -9.777777777777776800 ) ) ;
#352 = CARTESIAN_POINT ( 'NONE',  ( 8.400000000000009200, 14.49999999999999600, -10.00000000000000000 ) ) ;
#353 = COORDINATED_UNIVERSAL_TIME_OFFSET ( 9, 0, .AHEAD. ) ;
#354 = DIRECTION ( 'NONE',  ( -2.065146995210484700E-016, 1.000000000000000000, -0.0000000000000000000 ) ) ;
#355 = EDGE_CURVE ( 'NONE', #181, #365, #401, .T. ) ;
#356 = DIRECTION ( 'NONE',  ( 0.0000000000000000000, 0.2425356250363333900, 0.9701425001453318800 ) ) ;
#357 = ORIENTED_EDGE ( 'NONE', *, *, #394, .T. ) ;
#358 = DIRECTION ( 'NONE',  ( -1.000000000000000000, -0.0000000000000000000, -0.0000000000000000000 ) ) ;
#359 = DIRECTION ( 'NONE',  ( -2.065146995210484700E-016, 1.000000000000000000, -0.0000000000000000000 ) ) ;
#360 = CARTESIAN_POINT ( 'NONE',  ( 8.400000000000000400, 15.50000000000000000, -10.00000000000000000 ) ) ;
#361 = ORIENTED_EDGE ( 'NONE', *, *, #129, .F. ) ;
#362 = ORIENTED_EDGE ( 'NONE', *, *, #60, .F. ) ;
#363 = AXIS2_PLACEMENT_3D ( 'NONE', #244, #342, #102 ) ;
#364 = CALENDAR_DATE ( 2017, 7, 4 ) ;
#365 = VERTEX_POINT ( 'NONE', #316 ) ;
#366 = LINE ( 'NONE', #6, #255 ) ;
#367 = EDGE_CURVE ( 'NONE', #365, #350, #25, .T. ) ;
#368 = FACE_OUTER_BOUND ( 'NONE', #369, .T. ) ;
#369 = EDGE_LOOP ( 'NONE', ( #383, #138, #124, #229 ) ) ;
#370 = CARTESIAN_POINT ( 'NONE',  ( 0.0000000000000000000, 0.0000000000000000000, 0.0000000000000000000 ) ) ;
#371 = LOCAL_TIME ( 17, 24, 22.00000000000000000, #208 ) ;
#372 = ORIENTED_EDGE ( 'NONE', *, *, #129, .T. ) ;
#373 = EDGE_CURVE ( 'NONE', #236, #215, #194, .T. ) ;
#374 = VECTOR ( 'NONE', #264, 1000.000000000000000 ) ;
#375 = APPROVAL_ROLE ( '' ) ;
#376 = DATE_TIME_ROLE ( 'classification_date' ) ;
#377 = DIRECTION ( 'NONE',  ( 0.0000000000000000000, 0.2425356250363331100, -0.9701425001453318800 ) ) ;
#378 = DIRECTION ( 'NONE',  ( 0.0000000000000000000, -1.000000000000000000, 0.0000000000000000000 ) ) ;
#379 = FACE_OUTER_BOUND ( 'NONE', #336, .T. ) ;
#380 = PERSON_AND_ORGANIZATION ( #74, #3 ) ;
#381 = PERSON_AND_ORGANIZATION ( #74, #3 ) ;
#382 = AXIS2_PLACEMENT_3D ( 'NONE', #228, #94, #294 ) ;
#383 = ORIENTED_EDGE ( 'NONE', *, *, #287, .F. ) ;
#384 = VECTOR ( 'NONE', #151, 1000.000000000000000 ) ;
#385 = PLANE ( 'NONE',  #382 ) ;
#386 = CARTESIAN_POINT ( 'NONE',  ( 7.400000000000007500, -15.49999999999999800, -10.00000000000000000 ) ) ;
#387 = DIRECTION ( 'NONE',  ( 0.0000000000000000000, -0.2425356250363331100, 0.9701425001453318800 ) ) ;
#388 = EDGE_CURVE ( 'NONE', #350, #215, #224, .T. ) ;
#389 = CARTESIAN_POINT ( 'NONE',  ( 8.399999999999998600, -15.50000000000000000, -10.00000000000000000 ) ) ;
#390 = ORIENTED_EDGE ( 'NONE', *, *, #193, .T. ) ;
#391 = DIRECTION ( 'NONE',  ( -0.2357022603955157600, -0.2357022603955159500, 0.9428090415820632500 ) ) ;
#392 = ADVANCED_FACE ( 'NONE', ( #57 ), #142, .F. ) ;
#393 = LINE ( 'NONE', #351, #240 ) ;
#394 = EDGE_CURVE ( 'NONE', #323, #236, #127, .T. ) ;
#395 = VECTOR ( 'NONE', #188, 1000.000000000000000 ) ;
#396 = ORIENTED_EDGE ( 'NONE', *, *, #233, .T. ) ;
#397 = DATE_AND_TIME ( #217, #118 ) ;
#398 = ORIENTED_EDGE ( 'NONE', *, *, #394, .F. ) ;
#399 = DIRECTION ( 'NONE',  ( 1.119176436114069100E-016, 1.000000000000000000, 0.0000000000000000000 ) ) ;
#400 = VECTOR ( 'NONE', #120, 1000.000000000000000 ) ;
#401 = LINE ( 'NONE', #180, #88 ) ;
#402 = PLANE ( 'NONE',  #223 ) ;
#403 = VERTEX_POINT ( 'NONE', #177 ) ;
#404 = PERSON_AND_ORGANIZATION_ROLE ( 'creator' ) ;
#405 = EDGE_CURVE ( 'NONE', #365, #305, #366, .T. ) ;
#406 = DIRECTION ( 'NONE',  ( 0.0000000000000000000, -0.9701425001453318800, -0.2425356250363331100 ) ) ;
#407 = DIRECTION ( 'NONE',  ( 0.9701425001453319900, 2.003486869101119300E-016, -0.2425356250363330000 ) ) ;
#408 = CARTESIAN_POINT ( 'NONE',  ( 8.400000000000009200, 15.49999999999999800, -6.000000000000000000 ) ) ;
#409 = CARTESIAN_POINT ( 'NONE',  ( -5.733333333333333400, 12.83333333333332700, -16.66666666666667100 ) ) ;
#410 = MANIFOLD_SOLID_BREP ( '¶¯Ä - µoµ2', #275 ) ;
#411 = LINE ( 'NONE', #349, #384 ) ;
#412 = DIRECTION ( 'NONE',  ( -0.0000000000000000000, 0.9701425001453318800, 0.2425356250363331100 ) ) ;
#413 = CARTESIAN_POINT ( 'NONE',  ( 0.0000000000000000000, 0.0000000000000000000, 0.0000000000000000000 ) ) ;
#414 = CARTESIAN_POINT ( 'NONE',  ( -8.399999999999998600, -15.50000000000000000, -10.00000000000000000 ) ) ;
#415 = EDGE_CURVE ( 'NONE', #85, #305, #332, .T. ) ;
#416 = DIRECTION ( 'NONE',  ( -0.0000000000000000000, 0.0000000000000000000, 1.000000000000000000 ) ) ;
#417 = SECURITY_CLASSIFICATION ( '', '', #83 ) ;
#418 = VERTEX_POINT ( 'NONE', #179 ) ;
#419 = CARTESIAN_POINT ( 'NONE',  ( 8.400000000000009200, 15.49999999999999800, -6.000000000000000000 ) ) ;
#420 = AXIS2_PLACEMENT_3D ( 'NONE', #86, #407, #182 ) ;
#421 = DIRECTION ( 'NONE',  ( 0.2425356250363330000, 0.0000000000000000000, -0.9701425001453319900 ) ) ;
#422 = ADVANCED_FACE ( 'NONE', ( #427 ), #402, .T. ) ;
#423 = ORIENTED_EDGE ( 'NONE', *, *, #405, .T. ) ;
#424 = ADVANCED_FACE ( 'NONE', ( #308 ), #274, .F. ) ;
#425 = DIRECTION ( 'NONE',  ( 0.0000000000000000000, 0.9701425001453318800, -0.2425356250363333900 ) ) ;
#426 = LINE ( 'NONE', #189, #87 ) ;
#427 = FACE_OUTER_BOUND ( 'NONE', #237, .T. ) ;
#428 = AXIS2_PLACEMENT_3D ( 'NONE', #370, #140, #44 ) ;
#429 = EDGE_LOOP ( 'NONE', ( #42, #286, #250, #423 ) ) ;
ENDSEC;
END-ISO-10303-21;
