ISO-10303-21;
HEADER;
FILE_DESCRIPTION (( 'STEP AP203' ),
    '1' );
FILE_NAME ('C-935-ST.STEP',
    '2017-12-29T01:52:36',
    ( '' ),
    ( '' ),
    'SwSTEP 2.0',
    'SolidWorks 2014',
    '' );
FILE_SCHEMA (( 'CONFIG_CONTROL_DESIGN' ));
ENDSEC;

DATA;
#1 = DIRECTION ( 'NONE',  ( -0.0000000000000000000, -1.000000000000000000, -0.0000000000000000000 ) ) ;
#2 = FACE_OUTER_BOUND ( 'NONE', #196, .T. ) ;
#3 = AXIS2_PLACEMENT_3D ( 'NONE', #118, #179, #232 ) ;
#4 = AXIS2_PLACEMENT_3D ( 'NONE', #254, #223, #299 ) ;
#5 = ORIENTED_EDGE ( 'NONE', *, *, #233, .T. ) ;
#6 =( GEOMETRIC_REPRESENTATION_CONTEXT ( 3 ) GLOBAL_UNCERTAINTY_ASSIGNED_CONTEXT ( ( #102 ) ) GLOBAL_UNIT_ASSIGNED_CONTEXT ( ( #178, #258, #8 ) ) REPRESENTATION_CONTEXT ( 'NONE', 'WORKASPACE' ) );
#7 = ORIENTED_EDGE ( 'NONE', *, *, #190, .T. ) ;
#8 =( NAMED_UNIT ( * ) SI_UNIT ( $, .STERADIAN. ) SOLID_ANGLE_UNIT ( ) );
#9 = VERTEX_POINT ( 'NONE', #292 ) ;
#10 = LOCAL_TIME ( 10, 52, 36.00000000000000000, #276 ) ;
#11 = APPLICATION_PROTOCOL_DEFINITION ( 'international standard', 'config_control_design', 1994, #177 ) ;
#12 = CONICAL_SURFACE ( 'NONE', #266, 2.000000000000000000, 0.7853981633974497200 ) ;
#13 = CARTESIAN_POINT ( 'NONE',  ( 0.0000000000000000000, 0.0000000000000000000, 0.0000000000000000000 ) ) ;
#14 = APPROVAL ( #225, 'UNSPECIFIED' ) ;
#15 = CC_DESIGN_DATE_AND_TIME_ASSIGNMENT ( #57, #229, ( #211 ) ) ;
#16 = CC_DESIGN_PERSON_AND_ORGANIZATION_ASSIGNMENT ( #141, #201, ( #24 ) ) ;
#17 = CARTESIAN_POINT ( 'NONE',  ( 2.449293598294706400E-016, 0.3500000000000042000, 2.000000000000000000 ) ) ;
#18 = FACE_OUTER_BOUND ( 'NONE', #202, .T. ) ;
#19 = EDGE_CURVE ( 'NONE', #240, #227, #65, .T. ) ;
#20 = ORIENTED_EDGE ( 'NONE', *, *, #205, .T. ) ;
#21 = AXIS2_PLACEMENT_3D ( 'NONE', #96, #297, #104 ) ;
#22 = PERSON_AND_ORGANIZATION ( #58, #114 ) ;
#23 = CARTESIAN_POINT ( 'NONE',  ( 0.0000000000000000000, 0.3500000000000042000, -2.000000000000000000 ) ) ;
#24 = PRODUCT ( 'C-935-ST', 'C-935-ST', '', ( #265 ) ) ;
#25 = DIRECTION ( 'NONE',  ( -0.0000000000000000000, -1.000000000000000000, -0.0000000000000000000 ) ) ;
#26 = DIRECTION ( 'NONE',  ( 0.0000000000000000000, 0.0000000000000000000, -1.000000000000000000 ) ) ;
#27 = CARTESIAN_POINT ( 'NONE',  ( 0.0000000000000000000, 0.3500000000000042000, 2.000000000000000000 ) ) ;
#28 = AXIS2_PLACEMENT_3D ( 'NONE', #112, #257, #168 ) ;
#29 = AXIS2_PLACEMENT_3D ( 'NONE', #175, #66, #115 ) ;
#30 = CARTESIAN_POINT ( 'NONE',  ( 0.0000000000000000000, 1.600000000000000100, 0.0000000000000000000 ) ) ;
#31 = CALENDAR_DATE ( 2017, 29, 12 ) ;
#32 = MANIFOLD_SOLID_BREP ( '–ÊŽæ‚è1', #77 ) ;
#33 = ORIENTED_EDGE ( 'NONE', *, *, #269, .T. ) ;
#34 = FACE_OUTER_BOUND ( 'NONE', #280, .T. ) ;
#35 = LINE ( 'NONE', #204, #143 ) ;
#36 = CALENDAR_DATE ( 2017, 29, 12 ) ;
#37 = CC_DESIGN_PERSON_AND_ORGANIZATION_ASSIGNMENT ( #206, #123, ( #224 ) ) ;
#38 = EDGE_CURVE ( 'NONE', #193, #9, #275, .T. ) ;
#39 = DIRECTION ( 'NONE',  ( 0.0000000000000000000, 0.0000000000000000000, -1.000000000000000000 ) ) ;
#40 = ADVANCED_FACE ( 'NONE', ( #214 ), #150, .F. ) ;
#41 = CYLINDRICAL_SURFACE ( 'NONE', #192, 8.000000000000000000 ) ;
#42 = ADVANCED_FACE ( 'NONE', ( #2 ), #94, .F. ) ;
#43 = CARTESIAN_POINT ( 'NONE',  ( 0.0000000000000000000, 1.600000000000000100, -8.000000000000000000 ) ) ;
#44 = FACE_OUTER_BOUND ( 'NONE', #151, .T. ) ;
#45 = ORIENTED_EDGE ( 'NONE', *, *, #64, .F. ) ;
#46 = AXIS2_PLACEMENT_3D ( 'NONE', #194, #251, #39 ) ;
#47 = VERTEX_POINT ( 'NONE', #101 ) ;
#48 = DATE_AND_TIME ( #73, #119 ) ;
#49 = DIRECTION ( 'NONE',  ( 0.0000000000000000000, 0.0000000000000000000, 1.000000000000000000 ) ) ;
#50 = DIRECTION ( 'NONE',  ( 0.0000000000000000000, 0.7071067811865465700, 0.7071067811865485700 ) ) ;
#51 = DIRECTION ( 'NONE',  ( 0.0000000000000000000, 1.000000000000000000, 0.0000000000000000000 ) ) ;
#52 = DIRECTION ( 'NONE',  ( 0.0000000000000000000, 0.0000000000000000000, 1.000000000000000000 ) ) ;
#53 = CC_DESIGN_APPROVAL ( #110, ( #182 ) ) ;
#54 = PERSON_AND_ORGANIZATION ( #58, #114 ) ;
#55 = ORIENTED_EDGE ( 'NONE', *, *, #226, .F. ) ;
#56 = LINE ( 'NONE', #107, #120 ) ;
#57 = DATE_AND_TIME ( #203, #91 ) ;
#58 = PERSON ( 'UNSPECIFIED', 'UNSPECIFIED', 'UNSPECIFIED', ('UNSPECIFIED'), ('UNSPECIFIED'), ('UNSPECIFIED') ) ;
#59 = DIRECTION ( 'NONE',  ( 0.0000000000000000000, 0.0000000000000000000, 1.000000000000000000 ) ) ;
#60 = VERTEX_POINT ( 'NONE', #199 ) ;
#61 = APPROVAL_STATUS ( 'not_yet_approved' ) ;
#62 = EDGE_CURVE ( 'NONE', #47, #238, #184, .T. ) ;
#63 = EDGE_CURVE ( 'NONE', #60, #243, #298, .T. ) ;
#64 = EDGE_CURVE ( 'NONE', #279, #149, #270, .T. ) ;
#65 = CIRCLE ( 'NONE', #259, 3.249999999999999600 ) ;
#66 = DIRECTION ( 'NONE',  ( 0.0000000000000000000, 1.000000000000000000, 0.0000000000000000000 ) ) ;
#67 = ORIENTED_EDGE ( 'NONE', *, *, #278, .T. ) ;
#68 = VECTOR ( 'NONE', #92, 1000.000000000000000 ) ;
#69 = APPROVAL_ROLE ( '' ) ;
#70 = EDGE_LOOP ( 'NONE', ( #260, #133 ) ) ;
#71 = FACE_OUTER_BOUND ( 'NONE', #87, .T. ) ;
#72 = FACE_BOUND ( 'NONE', #127, .T. ) ;
#73 = CALENDAR_DATE ( 2017, 29, 12 ) ;
#74 = LINE ( 'NONE', #210, #75 ) ;
#75 = VECTOR ( 'NONE', #148, 1000.000000000000000 ) ;
#76 = CARTESIAN_POINT ( 'NONE',  ( 0.0000000000000000000, 1.600000000000000100, 3.249999999999999600 ) ) ;
#77 = CLOSED_SHELL ( 'NONE', ( #212, #42, #90, #188, #234, #296, #40, #235 ) ) ;
#78 = ORIENTED_EDGE ( 'NONE', *, *, #62, .F. ) ;
#79 = PERSON_AND_ORGANIZATION ( #58, #114 ) ;
#80 = EDGE_LOOP ( 'NONE', ( #222, #45, #247, #55 ) ) ;
#81 = PLANE ( 'NONE',  #28 ) ;
#82 = CARTESIAN_POINT ( 'NONE',  ( 9.797174393178825700E-016, 1.600000000000000100, 8.000000000000000000 ) ) ;
#83 = ORIENTED_EDGE ( 'NONE', *, *, #164, .T. ) ;
#84 = APPROVAL ( #61, 'UNSPECIFIED' ) ;
#85 = DATE_AND_TIME ( #36, #10 ) ;
#86 = CIRCLE ( 'NONE', #106, 3.249999999999999600 ) ;
#87 = EDGE_LOOP ( 'NONE', ( #132, #83, #136, #281 ) ) ;
#88 = CARTESIAN_POINT ( 'NONE',  ( 0.0000000000000000000, 1.600000000000000100, 0.0000000000000000000 ) ) ;
#89 = APPROVAL_PERSON_ORGANIZATION ( #97, #14, #197 ) ;
#90 = ADVANCED_FACE ( 'NONE', ( #18 ), #250, .T. ) ;
#91 = LOCAL_TIME ( 10, 52, 36.00000000000000000, #183 ) ;
#92 = DIRECTION ( 'NONE',  ( -0.0000000000000000000, -1.000000000000000000, -0.0000000000000000000 ) ) ;
#93 = DIRECTION ( 'NONE',  ( 0.0000000000000000000, 0.0000000000000000000, -1.000000000000000000 ) ) ;
#94 = CYLINDRICAL_SURFACE ( 'NONE', #46, 2.000000000000000000 ) ;
#95 = CC_DESIGN_SECURITY_CLASSIFICATION ( #211, ( #224 ) ) ;
#96 = CARTESIAN_POINT ( 'NONE',  ( 0.0000000000000000000, 0.0000000000000000000, 0.0000000000000000000 ) ) ;
#97 = PERSON_AND_ORGANIZATION ( #58, #114 ) ;
#98 = ORIENTED_EDGE ( 'NONE', *, *, #64, .T. ) ;
#99 = AXIS2_PLACEMENT_3D ( 'NONE', #283, #191, #294 ) ;
#100 = PERSON_AND_ORGANIZATION_ROLE ( 'classification_officer' ) ;
#101 = CARTESIAN_POINT ( 'NONE',  ( 0.0000000000000000000, 0.0000000000000000000, -2.000000000000000000 ) ) ;
#102 = UNCERTAINTY_MEASURE_WITH_UNIT (LENGTH_MEASURE( 1.000000000000000100E-005 ), #178, 'distance_accuracy_value', 'NONE');
#103 = LINE ( 'NONE', #27, #187 ) ;
#104 = DIRECTION ( 'NONE',  ( 1.000000000000000000, 0.0000000000000000000, 0.0000000000000000000 ) ) ;
#105 = PRODUCT_DEFINITION_SHAPE ( 'NONE', 'NONE',  #182 ) ;
#106 = AXIS2_PLACEMENT_3D ( 'NONE', #145, #1, #295 ) ;
#107 = CARTESIAN_POINT ( 'NONE',  ( 0.0000000000000000000, 1.600000000000000100, -2.000000000000000000 ) ) ;
#108 = PRODUCT_RELATED_PRODUCT_CATEGORY ( 'detail', '', ( #24 ) ) ;
#109 = CARTESIAN_POINT ( 'NONE',  ( 0.0000000000000000000, 0.0000000000000000000, 0.0000000000000000000 ) ) ;
#110 = APPROVAL ( #255, 'UNSPECIFIED' ) ;
#111 = AXIS2_PLACEMENT_3D ( 'NONE', #13, #256, #49 ) ;
#112 = CARTESIAN_POINT ( 'NONE',  ( 0.0000000000000000000, 1.600000000000000100, 0.0000000000000000000 ) ) ;
#113 = EDGE_CURVE ( 'NONE', #193, #243, #253, .T. ) ;
#114 = ORGANIZATION ( 'UNSPECIFIED', 'UNSPECIFIED', '' ) ;
#115 = DIRECTION ( 'NONE',  ( 0.0000000000000000000, -0.0000000000000000000, 1.000000000000000000 ) ) ;
#116 = EDGE_CURVE ( 'NONE', #279, #240, #103, .T. ) ;
#117 = CC_DESIGN_APPROVAL ( #84, ( #224 ) ) ;
#118 = CARTESIAN_POINT ( 'NONE',  ( 0.0000000000000000000, 0.3500000000000042000, 0.0000000000000000000 ) ) ;
#119 = LOCAL_TIME ( 10, 52, 36.00000000000000000, #121 ) ;
#120 = VECTOR ( 'NONE', #181, 1000.000000000000000 ) ;
#121 = COORDINATED_UNIVERSAL_TIME_OFFSET ( 9, 0, .AHEAD. ) ;
#122 = DIRECTION ( 'NONE',  ( -0.0000000000000000000, -1.000000000000000000, -0.0000000000000000000 ) ) ;
#123 = PERSON_AND_ORGANIZATION_ROLE ( 'creator' ) ;
#124 = CC_DESIGN_APPROVAL ( #14, ( #211 ) ) ;
#125 = ORIENTED_EDGE ( 'NONE', *, *, #208, .F. ) ;
#126 = AXIS2_PLACEMENT_3D ( 'NONE', #169, #147, #252 ) ;
#127 = EDGE_LOOP ( 'NONE', ( #291, #33 ) ) ;
#128 = CARTESIAN_POINT ( 'NONE',  ( 0.0000000000000000000, 1.600000000000000100, 0.0000000000000000000 ) ) ;
#129 = ORIENTED_EDGE ( 'NONE', *, *, #208, .T. ) ;
#130 = AXIS2_PLACEMENT_3D ( 'NONE', #88, #186, #244 ) ;
#131 = ORIENTED_EDGE ( 'NONE', *, *, #63, .T. ) ;
#132 = ORIENTED_EDGE ( 'NONE', *, *, #190, .F. ) ;
#133 = ORIENTED_EDGE ( 'NONE', *, *, #226, .T. ) ;
#134 = APPROVAL_DATE_TIME ( #165, #14 ) ;
#135 = CC_DESIGN_DATE_AND_TIME_ASSIGNMENT ( #48, #239, ( #182 ) ) ;
#136 = ORIENTED_EDGE ( 'NONE', *, *, #19, .F. ) ;
#137 = CC_DESIGN_PERSON_AND_ORGANIZATION_ASSIGNMENT ( #22, #159, ( #182 ) ) ;
#138 = CARTESIAN_POINT ( 'NONE',  ( 9.797174393178825700E-016, 1.600000000000000100, 8.000000000000000000 ) ) ;
#139 = AXIS2_PLACEMENT_3D ( 'NONE', #176, #289, #146 ) ;
#140 = AXIS2_PLACEMENT_3D ( 'NONE', #282, #163, #59 ) ;
#141 = PERSON_AND_ORGANIZATION ( #58, #114 ) ;
#142 = CARTESIAN_POINT ( 'NONE',  ( 0.0000000000000000000, 0.3500000000000042000, 0.0000000000000000000 ) ) ;
#143 = VECTOR ( 'NONE', #122, 1000.000000000000000 ) ;
#144 = CARTESIAN_POINT ( 'NONE',  ( 0.0000000000000000000, 1.600000000000000100, 0.0000000000000000000 ) ) ;
#145 = CARTESIAN_POINT ( 'NONE',  ( 0.0000000000000000000, 1.600000000000000100, 0.0000000000000000000 ) ) ;
#146 = DIRECTION ( 'NONE',  ( 0.0000000000000000000, 0.0000000000000000000, 1.000000000000000000 ) ) ;
#147 = DIRECTION ( 'NONE',  ( 0.0000000000000000000, 1.000000000000000000, 0.0000000000000000000 ) ) ;
#148 = DIRECTION ( 'NONE',  ( 8.659560562354946400E-017, 0.7071067811865465700, -0.7071067811865485700 ) ) ;
#149 = VERTEX_POINT ( 'NONE', #23 ) ;
#150 = CYLINDRICAL_SURFACE ( 'NONE', #171, 2.000000000000000000 ) ;
#151 = EDGE_LOOP ( 'NONE', ( #67, #173 ) ) ;
#152 = ORIENTED_EDGE ( 'NONE', *, *, #113, .T. ) ;
#153 = CARTESIAN_POINT ( 'NONE',  ( 2.449293598294706400E-016, 0.0000000000000000000, 2.000000000000000000 ) ) ;
#154 = AXIS2_PLACEMENT_3D ( 'NONE', #241, #51, #198 ) ;
#155 = ORIENTED_EDGE ( 'NONE', *, *, #38, .F. ) ;
#156 = CIRCLE ( 'NONE', #139, 2.000000000000000000 ) ;
#157 = DIRECTION ( 'NONE',  ( -0.0000000000000000000, -1.000000000000000000, -0.0000000000000000000 ) ) ;
#158 = CIRCLE ( 'NONE', #4, 8.000000000000000000 ) ;
#159 = PERSON_AND_ORGANIZATION_ROLE ( 'creator' ) ;
#160 = LOCAL_TIME ( 10, 52, 36.00000000000000000, #216 ) ;
#161 = CIRCLE ( 'NONE', #154, 8.000000000000000000 ) ;
#162 = FACE_OUTER_BOUND ( 'NONE', #167, .T. ) ;
#163 = DIRECTION ( 'NONE',  ( 0.0000000000000000000, 1.000000000000000000, 0.0000000000000000000 ) ) ;
#164 = EDGE_CURVE ( 'NONE', #149, #227, #74, .T. ) ;
#165 = DATE_AND_TIME ( #219, #160 ) ;
#166 = DIRECTION ( 'NONE',  ( 0.0000000000000000000, 1.000000000000000000, 0.0000000000000000000 ) ) ;
#167 = EDGE_LOOP ( 'NONE', ( #230, #261 ) ) ;
#168 = DIRECTION ( 'NONE',  ( 0.0000000000000000000, -0.0000000000000000000, 1.000000000000000000 ) ) ;
#169 = CARTESIAN_POINT ( 'NONE',  ( 0.0000000000000000000, 0.0000000000000000000, 0.0000000000000000000 ) ) ;
#170 = VECTOR ( 'NONE', #200, 1000.000000000000000 ) ;
#171 = AXIS2_PLACEMENT_3D ( 'NONE', #30, #157, #93 ) ;
#172 = FACE_BOUND ( 'NONE', #70, .T. ) ;
#173 = ORIENTED_EDGE ( 'NONE', *, *, #38, .T. ) ;
#174 = APPROVAL_ROLE ( '' ) ;
#175 = CARTESIAN_POINT ( 'NONE',  ( 0.0000000000000000000, 0.0000000000000000000, 0.0000000000000000000 ) ) ;
#176 = CARTESIAN_POINT ( 'NONE',  ( 0.0000000000000000000, 0.3500000000000042000, 0.0000000000000000000 ) ) ;
#177 = APPLICATION_CONTEXT ( 'configuration controlled 3d designs of mechanical parts and assemblies' ) ;
#178 =( LENGTH_UNIT ( ) NAMED_UNIT ( * ) SI_UNIT ( .MILLI., .METRE. ) );
#179 = DIRECTION ( 'NONE',  ( 0.0000000000000000000, 1.000000000000000000, 0.0000000000000000000 ) ) ;
#180 = DESIGN_CONTEXT ( 'detailed design', #177, 'design' ) ;
#181 = DIRECTION ( 'NONE',  ( -0.0000000000000000000, -1.000000000000000000, -0.0000000000000000000 ) ) ;
#182 = PRODUCT_DEFINITION ( 'UNKNOWN', '', #224, #180 ) ;
#183 = COORDINATED_UNIVERSAL_TIME_OFFSET ( 9, 0, .AHEAD. ) ;
#184 = CIRCLE ( 'NONE', #111, 2.000000000000000000 ) ;
#185 = PLANE ( 'NONE',  #29 ) ;
#186 = DIRECTION ( 'NONE',  ( 0.0000000000000000000, 1.000000000000000000, 0.0000000000000000000 ) ) ;
#187 = VECTOR ( 'NONE', #50, 1000.000000000000000 ) ;
#188 = ADVANCED_FACE ( 'NONE', ( #172, #44 ), #81, .T. ) ;
#189 = LINE ( 'NONE', #43, #68 ) ;
#190 = EDGE_CURVE ( 'NONE', #149, #279, #156, .T. ) ;
#191 = DIRECTION ( 'NONE',  ( -0.0000000000000000000, -1.000000000000000000, -0.0000000000000000000 ) ) ;
#192 = AXIS2_PLACEMENT_3D ( 'NONE', #128, #242, #26 ) ;
#193 = VERTEX_POINT ( 'NONE', #138 ) ;
#194 = CARTESIAN_POINT ( 'NONE',  ( 0.0000000000000000000, 1.600000000000000100, 0.0000000000000000000 ) ) ;
#195 = FACE_OUTER_BOUND ( 'NONE', #80, .T. ) ;
#196 = EDGE_LOOP ( 'NONE', ( #7, #20, #78, #125 ) ) ;
#197 = APPROVAL_ROLE ( '' ) ;
#198 = DIRECTION ( 'NONE',  ( 0.0000000000000000000, 0.0000000000000000000, 1.000000000000000000 ) ) ;
#199 = CARTESIAN_POINT ( 'NONE',  ( 0.0000000000000000000, 0.0000000000000000000, -8.000000000000000000 ) ) ;
#200 = DIRECTION ( 'NONE',  ( -0.0000000000000000000, -1.000000000000000000, -0.0000000000000000000 ) ) ;
#201 = PERSON_AND_ORGANIZATION_ROLE ( 'design_owner' ) ;
#202 = EDGE_LOOP ( 'NONE', ( #155, #152, #5, #236 ) ) ;
#203 = CALENDAR_DATE ( 2017, 29, 12 ) ;
#204 = CARTESIAN_POINT ( 'NONE',  ( 2.449293598294706400E-016, 1.600000000000000100, 2.000000000000000000 ) ) ;
#205 = EDGE_CURVE ( 'NONE', #279, #238, #35, .T. ) ;
#206 = PERSON_AND_ORGANIZATION ( #58, #114 ) ;
#207 = DIRECTION ( 'NONE',  ( 0.0000000000000000000, 1.000000000000000000, 0.0000000000000000000 ) ) ;
#208 = EDGE_CURVE ( 'NONE', #149, #47, #56, .T. ) ;
#209 = CONICAL_SURFACE ( 'NONE', #140, 2.000000000000000000, 0.7853981633974497200 ) ;
#210 = CARTESIAN_POINT ( 'NONE',  ( 2.449293598294706400E-016, 0.3500000000000042000, -2.000000000000000000 ) ) ;
#211 = SECURITY_CLASSIFICATION ( '', '', #248 ) ;
#212 = ADVANCED_FACE ( 'NONE', ( #71 ), #12, .F. ) ;
#213 = APPROVAL_DATE_TIME ( #277, #84 ) ;
#214 = FACE_OUTER_BOUND ( 'NONE', #217, .T. ) ;
#215 = ORIENTED_EDGE ( 'NONE', *, *, #278, .F. ) ;
#216 = COORDINATED_UNIVERSAL_TIME_OFFSET ( 9, 0, .AHEAD. ) ;
#217 = EDGE_LOOP ( 'NONE', ( #271, #98, #129, #220 ) ) ;
#218 = APPLICATION_PROTOCOL_DEFINITION ( 'international standard', 'config_control_design', 1994, #264 ) ;
#219 = CALENDAR_DATE ( 2017, 29, 12 ) ;
#220 = ORIENTED_EDGE ( 'NONE', *, *, #269, .F. ) ;
#221 = APPROVAL_PERSON_ORGANIZATION ( #273, #84, #174 ) ;
#222 = ORIENTED_EDGE ( 'NONE', *, *, #164, .F. ) ;
#223 = DIRECTION ( 'NONE',  ( 0.0000000000000000000, 1.000000000000000000, 0.0000000000000000000 ) ) ;
#224 = PRODUCT_DEFINITION_FORMATION_WITH_SPECIFIED_SOURCE ( 'ANY', '', #24, .NOT_KNOWN. ) ;
#225 = APPROVAL_STATUS ( 'not_yet_approved' ) ;
#226 = EDGE_CURVE ( 'NONE', #227, #240, #86, .T. ) ;
#227 = VERTEX_POINT ( 'NONE', #267 ) ;
#228 = LOCAL_TIME ( 10, 52, 36.00000000000000000, #237 ) ;
#229 = DATE_TIME_ROLE ( 'classification_date' ) ;
#230 = ORIENTED_EDGE ( 'NONE', *, *, #63, .F. ) ;
#231 = CC_DESIGN_PERSON_AND_ORGANIZATION_ASSIGNMENT ( #54, #262, ( #224 ) ) ;
#232 = DIRECTION ( 'NONE',  ( 0.0000000000000000000, 0.0000000000000000000, 1.000000000000000000 ) ) ;
#233 = EDGE_CURVE ( 'NONE', #243, #60, #161, .T. ) ;
#234 = ADVANCED_FACE ( 'NONE', ( #162, #72 ), #185, .F. ) ;
#235 = ADVANCED_FACE ( 'NONE', ( #195 ), #209, .F. ) ;
#236 = ORIENTED_EDGE ( 'NONE', *, *, #268, .F. ) ;
#237 = COORDINATED_UNIVERSAL_TIME_OFFSET ( 9, 0, .AHEAD. ) ;
#238 = VERTEX_POINT ( 'NONE', #153 ) ;
#239 = DATE_TIME_ROLE ( 'creation_date' ) ;
#240 = VERTEX_POINT ( 'NONE', #76 ) ;
#241 = CARTESIAN_POINT ( 'NONE',  ( 0.0000000000000000000, 0.0000000000000000000, 0.0000000000000000000 ) ) ;
#242 = DIRECTION ( 'NONE',  ( -0.0000000000000000000, -1.000000000000000000, -0.0000000000000000000 ) ) ;
#243 = VERTEX_POINT ( 'NONE', #290 ) ;
#244 = DIRECTION ( 'NONE',  ( 0.0000000000000000000, 0.0000000000000000000, 1.000000000000000000 ) ) ;
#245 = PERSON_AND_ORGANIZATION ( #58, #114 ) ;
#246 = AXIS2_PLACEMENT_3D ( 'NONE', #109, #207, #263 ) ;
#247 = ORIENTED_EDGE ( 'NONE', *, *, #116, .T. ) ;
#248 = SECURITY_CLASSIFICATION_LEVEL ( 'unclassified' ) ;
#249 = CIRCLE ( 'NONE', #126, 2.000000000000000000 ) ;
#250 = CYLINDRICAL_SURFACE ( 'NONE', #99, 8.000000000000000000 ) ;
#251 = DIRECTION ( 'NONE',  ( -0.0000000000000000000, -1.000000000000000000, -0.0000000000000000000 ) ) ;
#252 = DIRECTION ( 'NONE',  ( 0.0000000000000000000, 0.0000000000000000000, 1.000000000000000000 ) ) ;
#253 = LINE ( 'NONE', #82, #170 ) ;
#254 = CARTESIAN_POINT ( 'NONE',  ( 0.0000000000000000000, 1.600000000000000100, 0.0000000000000000000 ) ) ;
#255 = APPROVAL_STATUS ( 'not_yet_approved' ) ;
#256 = DIRECTION ( 'NONE',  ( 0.0000000000000000000, 1.000000000000000000, 0.0000000000000000000 ) ) ;
#257 = DIRECTION ( 'NONE',  ( 0.0000000000000000000, 1.000000000000000000, 0.0000000000000000000 ) ) ;
#258 =( NAMED_UNIT ( * ) PLANE_ANGLE_UNIT ( ) SI_UNIT ( $, .RADIAN. ) );
#259 = AXIS2_PLACEMENT_3D ( 'NONE', #144, #25, #52 ) ;
#260 = ORIENTED_EDGE ( 'NONE', *, *, #19, .T. ) ;
#261 = ORIENTED_EDGE ( 'NONE', *, *, #233, .F. ) ;
#262 = PERSON_AND_ORGANIZATION_ROLE ( 'design_supplier' ) ;
#263 = DIRECTION ( 'NONE',  ( 0.0000000000000000000, 0.0000000000000000000, 1.000000000000000000 ) ) ;
#264 = APPLICATION_CONTEXT ( 'configuration controlled 3d designs of mechanical parts and assemblies' ) ;
#265 = MECHANICAL_CONTEXT ( 'NONE', #264, 'mechanical' ) ;
#266 = AXIS2_PLACEMENT_3D ( 'NONE', #142, #166, #274 ) ;
#267 = CARTESIAN_POINT ( 'NONE',  ( 3.980102097228897200E-016, 1.600000000000000100, -3.249999999999999600 ) ) ;
#268 = EDGE_CURVE ( 'NONE', #9, #60, #189, .T. ) ;
#269 = EDGE_CURVE ( 'NONE', #238, #47, #249, .T. ) ;
#270 = CIRCLE ( 'NONE', #3, 2.000000000000000000 ) ;
#271 = ORIENTED_EDGE ( 'NONE', *, *, #205, .F. ) ;
#272 = APPROVAL_PERSON_ORGANIZATION ( #245, #110, #69 ) ;
#273 = PERSON_AND_ORGANIZATION ( #58, #114 ) ;
#274 = DIRECTION ( 'NONE',  ( 0.0000000000000000000, 0.0000000000000000000, 1.000000000000000000 ) ) ;
#275 = CIRCLE ( 'NONE', #130, 8.000000000000000000 ) ;
#276 = COORDINATED_UNIVERSAL_TIME_OFFSET ( 9, 0, .AHEAD. ) ;
#277 = DATE_AND_TIME ( #31, #228 ) ;
#278 = EDGE_CURVE ( 'NONE', #9, #193, #158, .T. ) ;
#279 = VERTEX_POINT ( 'NONE', #17 ) ;
#280 = EDGE_LOOP ( 'NONE', ( #285, #215, #286, #131 ) ) ;
#281 = ORIENTED_EDGE ( 'NONE', *, *, #116, .F. ) ;
#282 = CARTESIAN_POINT ( 'NONE',  ( 0.0000000000000000000, 0.3500000000000042000, 0.0000000000000000000 ) ) ;
#283 = CARTESIAN_POINT ( 'NONE',  ( 0.0000000000000000000, 1.600000000000000100, 0.0000000000000000000 ) ) ;
#284 = SHAPE_DEFINITION_REPRESENTATION ( #105, #288 ) ;
#285 = ORIENTED_EDGE ( 'NONE', *, *, #113, .F. ) ;
#286 = ORIENTED_EDGE ( 'NONE', *, *, #268, .T. ) ;
#287 = APPROVAL_DATE_TIME ( #85, #110 ) ;
#288 = ADVANCED_BREP_SHAPE_REPRESENTATION ( 'C-935-ST', ( #32, #21 ), #6 ) ;
#289 = DIRECTION ( 'NONE',  ( 0.0000000000000000000, 1.000000000000000000, 0.0000000000000000000 ) ) ;
#290 = CARTESIAN_POINT ( 'NONE',  ( 9.797174393178825700E-016, 0.0000000000000000000, 8.000000000000000000 ) ) ;
#291 = ORIENTED_EDGE ( 'NONE', *, *, #62, .T. ) ;
#292 = CARTESIAN_POINT ( 'NONE',  ( 0.0000000000000000000, 1.600000000000000100, -8.000000000000000000 ) ) ;
#293 = CC_DESIGN_PERSON_AND_ORGANIZATION_ASSIGNMENT ( #79, #100, ( #211 ) ) ;
#294 = DIRECTION ( 'NONE',  ( 0.0000000000000000000, 0.0000000000000000000, -1.000000000000000000 ) ) ;
#295 = DIRECTION ( 'NONE',  ( 0.0000000000000000000, 0.0000000000000000000, 1.000000000000000000 ) ) ;
#296 = ADVANCED_FACE ( 'NONE', ( #34 ), #41, .T. ) ;
#297 = DIRECTION ( 'NONE',  ( 0.0000000000000000000, 0.0000000000000000000, 1.000000000000000000 ) ) ;
#298 = CIRCLE ( 'NONE', #246, 8.000000000000000000 ) ;
#299 = DIRECTION ( 'NONE',  ( 0.0000000000000000000, 0.0000000000000000000, 1.000000000000000000 ) ) ;
ENDSEC;
END-ISO-10303-21;
