ISO-10303-21;
HEADER;
FILE_DESCRIPTION (( 'STEP AP203' ),
    '1' );
FILE_NAME ('C-346-OP.STEP',
    '2017-02-17T06:49:36',
    ( '' ),
    ( '' ),
    'SwSTEP 2.0',
    'SolidWorks 2014',
    '' );
FILE_SCHEMA (( 'CONFIG_CONTROL_DESIGN' ));
ENDSEC;

DATA;
#1 = LINE ( 'NONE', #45, #209 ) ;
#2 = CYLINDRICAL_SURFACE ( 'NONE', #366, 15.00000000000000000 ) ;
#3 = EDGE_CURVE ( 'NONE', #112, #103, #377, .T. ) ;
#4 = ORIENTED_EDGE ( 'NONE', *, *, #7, .F. ) ;
#5 = AXIS2_PLACEMENT_3D ( 'NONE', #126, #162, #208 ) ;
#6 = PERSON_AND_ORGANIZATION ( #152, #365 ) ;
#7 = EDGE_CURVE ( 'NONE', #70, #133, #175, .T. ) ;
#8 = DIRECTION ( 'NONE',  ( -0.0000000000000000000, -0.0000000000000000000, -1.000000000000000000 ) ) ;
#9 = LOCAL_TIME ( 15, 49, 36.00000000000000000, #241 ) ;
#10 = VERTEX_POINT ( 'NONE', #353 ) ;
#11 = DIRECTION ( 'NONE',  ( -1.000000000000000000, 0.0000000000000000000, 0.0000000000000000000 ) ) ;
#12 = APPROVAL ( #157, 'UNSPECIFIED' ) ;
#13 = ORIENTED_EDGE ( 'NONE', *, *, #284, .T. ) ;
#14 = LINE ( 'NONE', #57, #281 ) ;
#15 = AXIS2_PLACEMENT_3D ( 'NONE', #333, #116, #151 ) ;
#16 = LOCAL_TIME ( 15, 49, 36.00000000000000000, #313 ) ;
#17 = FACE_OUTER_BOUND ( 'NONE', #94, .T. ) ;
#18 = VERTEX_POINT ( 'NONE', #361 ) ;
#19 = AXIS2_PLACEMENT_3D ( 'NONE', #225, #260, #296 ) ;
#20 = DATE_AND_TIME ( #303, #16 ) ;
#21 = ORIENTED_EDGE ( 'NONE', *, *, #211, .F. ) ;
#22 = DIRECTION ( 'NONE',  ( -0.0000000000000000000, -0.0000000000000000000, -1.000000000000000000 ) ) ;
#23 = ORIENTED_EDGE ( 'NONE', *, *, #88, .F. ) ;
#24 = DESIGN_CONTEXT ( 'detailed design', #199, 'design' ) ;
#25 = DIRECTION ( 'NONE',  ( -1.000000000000000000, 0.0000000000000000000, 0.0000000000000000000 ) ) ;
#26 = DIRECTION ( 'NONE',  ( -0.0000000000000000000, -0.0000000000000000000, -1.000000000000000000 ) ) ;
#27 = APPROVAL ( #292, 'UNSPECIFIED' ) ;
#28 = ORIENTED_EDGE ( 'NONE', *, *, #253, .T. ) ;
#29 = PERSON_AND_ORGANIZATION_ROLE ( 'design_supplier' ) ;
#30 = APPLICATION_CONTEXT ( 'configuration controlled 3d designs of mechanical parts and assemblies' ) ;
#31 = CONICAL_SURFACE ( 'NONE', #100, 15.00000000000000000, 0.4200784683691973800 ) ;
#32 = EDGE_CURVE ( 'NONE', #103, #112, #48, .T. ) ;
#33 =( GEOMETRIC_REPRESENTATION_CONTEXT ( 3 ) GLOBAL_UNCERTAINTY_ASSIGNED_CONTEXT ( ( #219 ) ) GLOBAL_UNIT_ASSIGNED_CONTEXT ( ( #323, #71, #180 ) ) REPRESENTATION_CONTEXT ( 'NONE', 'WORKASPACE' ) );
#34 = DIRECTION ( 'NONE',  ( -0.0000000000000000000, -0.0000000000000000000, -1.000000000000000000 ) ) ;
#35 = CIRCLE ( 'NONE', #185, 11.04999999999999900 ) ;
#36 = CARTESIAN_POINT ( 'NONE',  ( -11.04999999999999900, 0.0000000000000000000, 1.400000000000000100 ) ) ;
#37 = APPROVAL_DATE_TIME ( #373, #27 ) ;
#38 = CLOSED_SHELL ( 'NONE', ( #115, #236, #246, #293, #286, #213, #146, #349, #311, #144, #39 ) ) ;
#39 = ADVANCED_FACE ( 'NONE', ( #367, #228 ), #376, .T. ) ;
#40 = AXIS2_PLACEMENT_3D ( 'NONE', #226, #261, #299 ) ;
#41 = CARTESIAN_POINT ( 'NONE',  ( -9.599999999999999600, 0.0000000000000000000, -4.111510791366901800 ) ) ;
#42 = ORIENTED_EDGE ( 'NONE', *, *, #111, .F. ) ;
#43 = AXIS2_PLACEMENT_3D ( 'NONE', #76, #110, #147 ) ;
#44 = LOCAL_TIME ( 15, 49, 36.00000000000000000, #278 ) ;
#45 = CARTESIAN_POINT ( 'NONE',  ( 9.599999999999999600, 1.175660927181458800E-015, -4.111510791366901800 ) ) ;
#46 = AXIS2_PLACEMENT_3D ( 'NONE', #239, #276, #310 ) ;
#47 = ORIENTED_EDGE ( 'NONE', *, *, #294, .F. ) ;
#48 = CIRCLE ( 'NONE', #54, 15.00000000000000000 ) ;
#49 = PERSON_AND_ORGANIZATION_ROLE ( 'design_owner' ) ;
#50 = CARTESIAN_POINT ( 'NONE',  ( 0.0000000000000000000, 0.0000000000000000000, 8.000000000000000000 ) ) ;
#51 = ORIENTED_EDGE ( 'NONE', *, *, #345, .F. ) ;
#52 = EDGE_CURVE ( 'NONE', #123, #18, #328, .T. ) ;
#53 = PLANE ( 'NONE',  #106 ) ;
#54 = AXIS2_PLACEMENT_3D ( 'NONE', #277, #312, #332 ) ;
#55 = EDGE_CURVE ( 'NONE', #133, #70, #256, .T. ) ;
#56 = ORIENTED_EDGE ( 'NONE', *, *, #262, .T. ) ;
#57 = CARTESIAN_POINT ( 'NONE',  ( 15.00000000000000000, 1.836970198721029600E-015, 0.5000000000000004400 ) ) ;
#58 = EDGE_LOOP ( 'NONE', ( #350, #347, #317, #149 ) ) ;
#59 = DATE_TIME_ROLE ( 'creation_date' ) ;
#60 = FACE_OUTER_BOUND ( 'NONE', #341, .T. ) ;
#61 = ORIENTED_EDGE ( 'NONE', *, *, #55, .F. ) ;
#62 = DIRECTION ( 'NONE',  ( -1.000000000000000000, 0.0000000000000000000, 0.0000000000000000000 ) ) ;
#63 = EDGE_CURVE ( 'NONE', #112, #214, #189, .T. ) ;
#64 = ORIENTED_EDGE ( 'NONE', *, *, #211, .T. ) ;
#65 = CARTESIAN_POINT ( 'NONE',  ( -9.599999999999999600, 0.0000000000000000000, 1.400000000000000100 ) ) ;
#66 = VECTOR ( 'NONE', #170, 1000.000000000000000 ) ;
#67 = DIRECTION ( 'NONE',  ( -1.000000000000000000, 0.0000000000000000000, 0.0000000000000000000 ) ) ;
#68 = EDGE_LOOP ( 'NONE', ( #28, #139 ) ) ;
#69 = SECURITY_CLASSIFICATION_LEVEL ( 'unclassified' ) ;
#70 = VERTEX_POINT ( 'NONE', #138 ) ;
#71 =( NAMED_UNIT ( * ) PLANE_ANGLE_UNIT ( ) SI_UNIT ( $, .RADIAN. ) );
#72 = DIRECTION ( 'NONE',  ( -1.000000000000000000, 0.0000000000000000000, 0.0000000000000000000 ) ) ;
#73 = CIRCLE ( 'NONE', #194, 15.00000000000000000 ) ;
#74 = CARTESIAN_POINT ( 'NONE',  ( -11.64999999999999900, 0.0000000000000000000, 8.000000000000000000 ) ) ;
#75 = CC_DESIGN_PERSON_AND_ORGANIZATION_ASSIGNMENT ( #359, #29, ( #297 ) ) ;
#76 = CARTESIAN_POINT ( 'NONE',  ( 0.0000000000000000000, 0.0000000000000000000, 0.0000000000000000000 ) ) ;
#77 = ORIENTED_EDGE ( 'NONE', *, *, #264, .F. ) ;
#78 = DIRECTION ( 'NONE',  ( -0.0000000000000000000, -0.0000000000000000000, -1.000000000000000000 ) ) ;
#79 = ORIENTED_EDGE ( 'NONE', *, *, #284, .F. ) ;
#80 = DIRECTION ( 'NONE',  ( -0.0000000000000000000, -0.0000000000000000000, -1.000000000000000000 ) ) ;
#81 = DIRECTION ( 'NONE',  ( -0.4078321004042265200, 0.0000000000000000000, -0.9130569412034919000 ) ) ;
#82 = EDGE_CURVE ( 'NONE', #123, #161, #247, .T. ) ;
#83 = ORIENTED_EDGE ( 'NONE', *, *, #294, .T. ) ;
#84 = APPLICATION_PROTOCOL_DEFINITION ( 'international standard', 'config_control_design', 1994, #199 ) ;
#85 = DIRECTION ( 'NONE',  ( -1.000000000000000000, 0.0000000000000000000, 0.0000000000000000000 ) ) ;
#86 = ORIENTED_EDGE ( 'NONE', *, *, #63, .T. ) ;
#87 = CARTESIAN_POINT ( 'NONE',  ( 9.599999999999999600, 1.175660927181458800E-015, 0.0000000000000000000 ) ) ;
#88 = EDGE_CURVE ( 'NONE', #133, #103, #127, .T. ) ;
#89 = ORIENTED_EDGE ( 'NONE', *, *, #177, .F. ) ;
#90 = MANIFOLD_SOLID_BREP ( '‰ñ“]1', #38 ) ;
#91 = DIRECTION ( 'NONE',  ( 0.4078321004042265200, 4.994502763495779200E-017, -0.9130569412034919000 ) ) ;
#92 = CARTESIAN_POINT ( 'NONE',  ( -15.00000000000000000, 0.0000000000000000000, 0.5000000000000004400 ) ) ;
#93 = FACE_OUTER_BOUND ( 'NONE', #234, .T. ) ;
#94 = EDGE_LOOP ( 'NONE', ( #61, #4 ) ) ;
#95 = PERSON_AND_ORGANIZATION ( #152, #365 ) ;
#96 = ORIENTED_EDGE ( 'NONE', *, *, #55, .T. ) ;
#97 = LINE ( 'NONE', #132, #66 ) ;
#98 = ORIENTED_EDGE ( 'NONE', *, *, #32, .F. ) ;
#99 = CARTESIAN_POINT ( 'NONE',  ( 9.599999999999999600, 1.175660927181458800E-015, 1.400000000000000100 ) ) ;
#100 = AXIS2_PLACEMENT_3D ( 'NONE', #351, #22, #62 ) ;
#101 = CARTESIAN_POINT ( 'NONE',  ( 0.0000000000000000000, 0.0000000000000000000, -4.111510791366901800 ) ) ;
#102 = PRODUCT_RELATED_PRODUCT_CATEGORY ( 'detail', '', ( #307 ) ) ;
#103 = VERTEX_POINT ( 'NONE', #316 ) ;
#104 = PERSON_AND_ORGANIZATION ( #152, #365 ) ;
#105 = DIRECTION ( 'NONE',  ( 0.0000000000000000000, 0.0000000000000000000, 1.000000000000000000 ) ) ;
#106 = AXIS2_PLACEMENT_3D ( 'NONE', #124, #160, #205 ) ;
#107 = CARTESIAN_POINT ( 'NONE',  ( 0.0000000000000000000, 0.0000000000000000000, 0.0000000000000000000 ) ) ;
#108 = CARTESIAN_POINT ( 'NONE',  ( 0.0000000000000000000, 0.0000000000000000000, -4.111510791366901800 ) ) ;
#109 = CYLINDRICAL_SURFACE ( 'NONE', #40, 15.00000000000000000 ) ;
#110 = DIRECTION ( 'NONE',  ( 0.0000000000000000000, 0.0000000000000000000, 1.000000000000000000 ) ) ;
#111 = EDGE_CURVE ( 'NONE', #238, #244, #243, .T. ) ;
#112 = VERTEX_POINT ( 'NONE', #136 ) ;
#113 = EDGE_CURVE ( 'NONE', #103, #221, #174, .T. ) ;
#114 = ORIENTED_EDGE ( 'NONE', *, *, #345, .T. ) ;
#115 = ADVANCED_FACE ( 'NONE', ( #60 ), #255, .F. ) ;
#116 = DIRECTION ( 'NONE',  ( -0.0000000000000000000, -0.0000000000000000000, -1.000000000000000000 ) ) ;
#117 = ORIENTED_EDGE ( 'NONE', *, *, #169, .F. ) ;
#118 = CARTESIAN_POINT ( 'NONE',  ( 0.0000000000000000000, 0.0000000000000000000, 0.0000000000000000000 ) ) ;
#119 = CYLINDRICAL_SURFACE ( 'NONE', #15, 9.599999999999999600 ) ;
#120 = LOCAL_TIME ( 15, 49, 36.00000000000000000, #342 ) ;
#121 = PERSON_AND_ORGANIZATION ( #152, #365 ) ;
#122 = CARTESIAN_POINT ( 'NONE',  ( 15.00000000000000000, 1.836970198721029600E-015, -4.111510791366901800 ) ) ;
#123 = VERTEX_POINT ( 'NONE', #368 ) ;
#124 = CARTESIAN_POINT ( 'NONE',  ( 0.0000000000000000000, 11.64999999999999900, 8.000000000000000000 ) ) ;
#125 = ORIENTED_EDGE ( 'NONE', *, *, #113, .T. ) ;
#126 = CARTESIAN_POINT ( 'NONE',  ( 0.0000000000000000000, 9.599999999999999600, 0.0000000000000000000 ) ) ;
#127 = LINE ( 'NONE', #92, #370 ) ;
#128 = VERTEX_POINT ( 'NONE', #36 ) ;
#129 = APPROVAL_STATUS ( 'not_yet_approved' ) ;
#130 = AXIS2_PLACEMENT_3D ( 'NONE', #257, #181, #202 ) ;
#131 = ORIENTED_EDGE ( 'NONE', *, *, #372, .F. ) ;
#132 = CARTESIAN_POINT ( 'NONE',  ( -11.04999999999999900, 0.0000000000000000000, -4.111510791366901800 ) ) ;
#133 = VERTEX_POINT ( 'NONE', #74 ) ;
#134 = CARTESIAN_POINT ( 'NONE',  ( 0.0000000000000000000, 0.0000000000000000000, -4.111510791366901800 ) ) ;
#135 = AXIS2_PLACEMENT_3D ( 'NONE', #118, #154, #197 ) ;
#136 = CARTESIAN_POINT ( 'NONE',  ( 15.00000000000000000, 1.836970198721029600E-015, 0.5000000000000004400 ) ) ;
#137 = CIRCLE ( 'NONE', #289, 11.04999999999999900 ) ;
#138 = CARTESIAN_POINT ( 'NONE',  ( 11.64999999999999900, 1.631841859863847900E-015, 8.000000000000000000 ) ) ;
#139 = ORIENTED_EDGE ( 'NONE', *, *, #177, .T. ) ;
#140 = PERSON_AND_ORGANIZATION_ROLE ( 'classification_officer' ) ;
#141 = DIRECTION ( 'NONE',  ( 1.000000000000000000, 0.0000000000000000000, -0.0000000000000000000 ) ) ;
#142 = DIRECTION ( 'NONE',  ( -0.0000000000000000000, -0.0000000000000000000, -1.000000000000000000 ) ) ;
#143 = DIRECTION ( 'NONE',  ( -0.0000000000000000000, -0.0000000000000000000, -1.000000000000000000 ) ) ;
#144 = ADVANCED_FACE ( 'NONE', ( #374 ), #179, .F. ) ;
#145 = FACE_BOUND ( 'NONE', #159, .T. ) ;
#146 = ADVANCED_FACE ( 'NONE', ( #324 ), #109, .T. ) ;
#147 = DIRECTION ( 'NONE',  ( 1.000000000000000000, 0.0000000000000000000, 0.0000000000000000000 ) ) ;
#148 = CIRCLE ( 'NONE', #46, 9.599999999999999600 ) ;
#149 = ORIENTED_EDGE ( 'NONE', *, *, #264, .T. ) ;
#150 = ORIENTED_EDGE ( 'NONE', *, *, #3, .T. ) ;
#151 = DIRECTION ( 'NONE',  ( -1.000000000000000000, 0.0000000000000000000, 0.0000000000000000000 ) ) ;
#152 = PERSON ( 'UNSPECIFIED', 'UNSPECIFIED', 'UNSPECIFIED', ('UNSPECIFIED'), ('UNSPECIFIED'), ('UNSPECIFIED') ) ;
#153 = EDGE_LOOP ( 'NONE', ( #51, #302, #195, #79 ) ) ;
#154 = DIRECTION ( 'NONE',  ( -0.0000000000000000000, -0.0000000000000000000, -1.000000000000000000 ) ) ;
#155 = FACE_OUTER_BOUND ( 'NONE', #275, .T. ) ;
#156 = ORIENTED_EDGE ( 'NONE', *, *, #111, .T. ) ;
#157 = APPROVAL_STATUS ( 'not_yet_approved' ) ;
#158 = DIRECTION ( 'NONE',  ( -0.0000000000000000000, -0.0000000000000000000, -1.000000000000000000 ) ) ;
#159 = EDGE_LOOP ( 'NONE', ( #171, #322 ) ) ;
#160 = DIRECTION ( 'NONE',  ( 0.0000000000000000000, 0.0000000000000000000, 1.000000000000000000 ) ) ;
#161 = VERTEX_POINT ( 'NONE', #335 ) ;
#162 = DIRECTION ( 'NONE',  ( -0.0000000000000000000, 0.0000000000000000000, -1.000000000000000000 ) ) ;
#163 = CYLINDRICAL_SURFACE ( 'NONE', #346, 9.599999999999999600 ) ;
#164 = DIRECTION ( 'NONE',  ( -0.0000000000000000000, -0.0000000000000000000, -1.000000000000000000 ) ) ;
#165 = ORIENTED_EDGE ( 'NONE', *, *, #82, .T. ) ;
#166 = FACE_BOUND ( 'NONE', #270, .T. ) ;
#167 = APPROVAL_ROLE ( '' ) ;
#168 = ORIENTED_EDGE ( 'NONE', *, *, #7, .T. ) ;
#169 = EDGE_CURVE ( 'NONE', #244, #306, #1, .T. ) ;
#170 = DIRECTION ( 'NONE',  ( -0.0000000000000000000, -0.0000000000000000000, -1.000000000000000000 ) ) ;
#171 = ORIENTED_EDGE ( 'NONE', *, *, #196, .T. ) ;
#172 = DIRECTION ( 'NONE',  ( -0.0000000000000000000, -0.0000000000000000000, -1.000000000000000000 ) ) ;
#173 = AXIS2_PLACEMENT_3D ( 'NONE', #107, #142, #183 ) ;
#174 = LINE ( 'NONE', #220, #188 ) ;
#175 = CIRCLE ( 'NONE', #279, 11.64999999999999900 ) ;
#176 = VECTOR ( 'NONE', #164, 1000.000000000000000 ) ;
#177 = EDGE_CURVE ( 'NONE', #214, #221, #336, .T. ) ;
#178 = DATE_AND_TIME ( #231, #9 ) ;
#179 = CYLINDRICAL_SURFACE ( 'NONE', #320, 11.04999999999999900 ) ;
#180 =( NAMED_UNIT ( * ) SI_UNIT ( $, .STERADIAN. ) SOLID_ANGLE_UNIT ( ) );
#181 = DIRECTION ( 'NONE',  ( -0.0000000000000000000, -0.0000000000000000000, -1.000000000000000000 ) ) ;
#182 = CC_DESIGN_SECURITY_CLASSIFICATION ( #250, ( #297 ) ) ;
#183 = DIRECTION ( 'NONE',  ( -1.000000000000000000, 0.0000000000000000000, 0.0000000000000000000 ) ) ;
#184 = DIRECTION ( 'NONE',  ( -1.000000000000000000, 0.0000000000000000000, 0.0000000000000000000 ) ) ;
#185 = AXIS2_PLACEMENT_3D ( 'NONE', #233, #272, #304 ) ;
#186 = ORIENTED_EDGE ( 'NONE', *, *, #32, .T. ) ;
#187 = SHAPE_DEFINITION_REPRESENTATION ( #379, #321 ) ;
#188 = VECTOR ( 'NONE', #252, 1000.000000000000000 ) ;
#189 = LINE ( 'NONE', #122, #203 ) ;
#190 = ORIENTED_EDGE ( 'NONE', *, *, #63, .F. ) ;
#191 = CC_DESIGN_APPROVAL ( #27, ( #250 ) ) ;
#192 = CARTESIAN_POINT ( 'NONE',  ( 0.0000000000000000000, 0.0000000000000000000, -4.111510791366901800 ) ) ;
#193 = CONICAL_SURFACE ( 'NONE', #360, 15.00000000000000000, 0.4200784683691973800 ) ;
#194 = AXIS2_PLACEMENT_3D ( 'NONE', #251, #288, #327 ) ;
#195 = ORIENTED_EDGE ( 'NONE', *, *, #258, .T. ) ;
#196 = EDGE_CURVE ( 'NONE', #18, #123, #35, .T. ) ;
#197 = DIRECTION ( 'NONE',  ( -1.000000000000000000, 0.0000000000000000000, 0.0000000000000000000 ) ) ;
#198 = EDGE_LOOP ( 'NONE', ( #21, #168, #248, #204 ) ) ;
#199 = APPLICATION_CONTEXT ( 'configuration controlled 3d designs of mechanical parts and assemblies' ) ;
#200 = APPROVAL_ROLE ( '' ) ;
#201 = CIRCLE ( 'NONE', #358, 9.599999999999999600 ) ;
#202 = DIRECTION ( 'NONE',  ( -1.000000000000000000, 0.0000000000000000000, 0.0000000000000000000 ) ) ;
#203 = VECTOR ( 'NONE', #8, 1000.000000000000000 ) ;
#204 = ORIENTED_EDGE ( 'NONE', *, *, #3, .F. ) ;
#205 = DIRECTION ( 'NONE',  ( 1.000000000000000000, 0.0000000000000000000, -0.0000000000000000000 ) ) ;
#206 = CALENDAR_DATE ( 2017, 17, 2 ) ;
#207 = DIRECTION ( 'NONE',  ( -0.0000000000000000000, -0.0000000000000000000, -1.000000000000000000 ) ) ;
#208 = DIRECTION ( 'NONE',  ( -1.000000000000000000, 0.0000000000000000000, 0.0000000000000000000 ) ) ;
#209 = VECTOR ( 'NONE', #80, 1000.000000000000000 ) ;
#210 = CARTESIAN_POINT ( 'NONE',  ( 11.04999999999999900, 1.353234713057825300E-015, -4.111510791366901800 ) ) ;
#211 = EDGE_CURVE ( 'NONE', #70, #112, #14, .T. ) ;
#212 = DATE_AND_TIME ( #269, #44 ) ;
#213 = ADVANCED_FACE ( 'NONE', ( #235, #166 ), #343, .T. ) ;
#214 = VERTEX_POINT ( 'NONE', #242 ) ;
#215 = APPROVAL ( #129, 'UNSPECIFIED' ) ;
#216 = EDGE_LOOP ( 'NONE', ( #77, #47 ) ) ;
#217 = COORDINATED_UNIVERSAL_TIME_OFFSET ( 9, 0, .AHEAD. ) ;
#218 = DIRECTION ( 'NONE',  ( -1.000000000000000000, 0.0000000000000000000, 0.0000000000000000000 ) ) ;
#219 = UNCERTAINTY_MEASURE_WITH_UNIT (LENGTH_MEASURE( 1.000000000000000100E-005 ), #323, 'distance_accuracy_value', 'NONE');
#220 = CARTESIAN_POINT ( 'NONE',  ( -15.00000000000000000, 0.0000000000000000000, -4.111510791366901800 ) ) ;
#221 = VERTEX_POINT ( 'NONE', #280 ) ;
#222 = DATE_TIME_ROLE ( 'classification_date' ) ;
#223 = CARTESIAN_POINT ( 'NONE',  ( 0.0000000000000000000, 11.04999999999999900, 1.400000000000000100 ) ) ;
#224 = APPROVAL_PERSON_ORGANIZATION ( #254, #27, #331 ) ;
#225 = CARTESIAN_POINT ( 'NONE',  ( 0.0000000000000000000, 0.0000000000000000000, 1.400000000000000100 ) ) ;
#226 = CARTESIAN_POINT ( 'NONE',  ( 0.0000000000000000000, 0.0000000000000000000, -4.111510791366901800 ) ) ;
#227 = CC_DESIGN_DATE_AND_TIME_ASSIGNMENT ( #20, #59, ( #318 ) ) ;
#228 = FACE_OUTER_BOUND ( 'NONE', #216, .T. ) ;
#229 = ORIENTED_EDGE ( 'NONE', *, *, #262, .F. ) ;
#230 = DIRECTION ( 'NONE',  ( -0.0000000000000000000, -0.0000000000000000000, -1.000000000000000000 ) ) ;
#231 = CALENDAR_DATE ( 2017, 17, 2 ) ;
#232 = ORIENTED_EDGE ( 'NONE', *, *, #52, .F. ) ;
#233 = CARTESIAN_POINT ( 'NONE',  ( 0.0000000000000000000, 0.0000000000000000000, 8.000000000000000000 ) ) ;
#234 = EDGE_LOOP ( 'NONE', ( #186, #86, #339, #265 ) ) ;
#235 = FACE_OUTER_BOUND ( 'NONE', #68, .T. ) ;
#236 = ADVANCED_FACE ( 'NONE', ( #155 ), #193, .T. ) ;
#237 = DATE_AND_TIME ( #334, #120 ) ;
#238 = VERTEX_POINT ( 'NONE', #65 ) ;
#239 = CARTESIAN_POINT ( 'NONE',  ( 0.0000000000000000000, 0.0000000000000000000, 1.400000000000000100 ) ) ;
#240 = DIRECTION ( 'NONE',  ( -1.000000000000000000, 0.0000000000000000000, 0.0000000000000000000 ) ) ;
#241 = COORDINATED_UNIVERSAL_TIME_OFFSET ( 9, 0, .AHEAD. ) ;
#242 = CARTESIAN_POINT ( 'NONE',  ( 15.00000000000000000, 1.836970198721029600E-015, 0.0000000000000000000 ) ) ;
#243 = CIRCLE ( 'NONE', #305, 9.599999999999999600 ) ;
#244 = VERTEX_POINT ( 'NONE', #99 ) ;
#245 = APPROVAL_DATE_TIME ( #212, #215 ) ;
#246 = ADVANCED_FACE ( 'NONE', ( #93 ), #2, .T. ) ;
#247 = LINE ( 'NONE', #210, #176 ) ;
#248 = ORIENTED_EDGE ( 'NONE', *, *, #88, .T. ) ;
#249 = CARTESIAN_POINT ( 'NONE',  ( 0.0000000000000000000, 0.0000000000000000000, 0.5000000000000004400 ) ) ;
#250 = SECURITY_CLASSIFICATION ( '', '', #69 ) ;
#251 = CARTESIAN_POINT ( 'NONE',  ( 0.0000000000000000000, 0.0000000000000000000, 0.0000000000000000000 ) ) ;
#252 = DIRECTION ( 'NONE',  ( -0.0000000000000000000, -0.0000000000000000000, -1.000000000000000000 ) ) ;
#253 = EDGE_CURVE ( 'NONE', #221, #214, #73, .T. ) ;
#254 = PERSON_AND_ORGANIZATION ( #152, #365 ) ;
#255 = CYLINDRICAL_SURFACE ( 'NONE', #295, 11.04999999999999900 ) ;
#256 = CIRCLE ( 'NONE', #337, 11.64999999999999900 ) ;
#257 = CARTESIAN_POINT ( 'NONE',  ( 0.0000000000000000000, 0.0000000000000000000, 8.000000000000000000 ) ) ;
#258 = EDGE_CURVE ( 'NONE', #306, #10, #201, .T. ) ;
#259 = CC_DESIGN_APPROVAL ( #215, ( #297 ) ) ;
#260 = DIRECTION ( 'NONE',  ( -0.0000000000000000000, -0.0000000000000000000, -1.000000000000000000 ) ) ;
#261 = DIRECTION ( 'NONE',  ( -0.0000000000000000000, -0.0000000000000000000, -1.000000000000000000 ) ) ;
#262 = EDGE_CURVE ( 'NONE', #10, #306, #282, .T. ) ;
#263 = EDGE_LOOP ( 'NONE', ( #156, #114 ) ) ;
#264 = EDGE_CURVE ( 'NONE', #128, #161, #344, .T. ) ;
#265 = ORIENTED_EDGE ( 'NONE', *, *, #113, .F. ) ;
#266 = EDGE_LOOP ( 'NONE', ( #190, #150, #125, #89 ) ) ;
#267 = DIRECTION ( 'NONE',  ( -1.000000000000000000, 0.0000000000000000000, 0.0000000000000000000 ) ) ;
#268 = CC_DESIGN_DATE_AND_TIME_ASSIGNMENT ( #178, #222, ( #250 ) ) ;
#269 = CALENDAR_DATE ( 2017, 17, 2 ) ;
#270 = EDGE_LOOP ( 'NONE', ( #229, #300 ) ) ;
#271 = VECTOR ( 'NONE', #78, 1000.000000000000000 ) ;
#272 = DIRECTION ( 'NONE',  ( -0.0000000000000000000, -0.0000000000000000000, -1.000000000000000000 ) ) ;
#273 = FACE_OUTER_BOUND ( 'NONE', #198, .T. ) ;
#274 = APPROVAL_DATE_TIME ( #237, #12 ) ;
#275 = EDGE_LOOP ( 'NONE', ( #96, #64, #98, #23 ) ) ;
#276 = DIRECTION ( 'NONE',  ( -0.0000000000000000000, -0.0000000000000000000, -1.000000000000000000 ) ) ;
#277 = CARTESIAN_POINT ( 'NONE',  ( 0.0000000000000000000, 0.0000000000000000000, 0.5000000000000004400 ) ) ;
#278 = COORDINATED_UNIVERSAL_TIME_OFFSET ( 9, 0, .AHEAD. ) ;
#279 = AXIS2_PLACEMENT_3D ( 'NONE', #362, #207, #240 ) ;
#280 = CARTESIAN_POINT ( 'NONE',  ( -15.00000000000000000, 0.0000000000000000000, 0.0000000000000000000 ) ) ;
#281 = VECTOR ( 'NONE', #91, 1000.000000000000200 ) ;
#282 = CIRCLE ( 'NONE', #173, 9.599999999999999600 ) ;
#283 = PERSON_AND_ORGANIZATION ( #152, #365 ) ;
#284 = EDGE_CURVE ( 'NONE', #238, #10, #378, .T. ) ;
#285 = DIRECTION ( 'NONE',  ( -0.0000000000000000000, -0.0000000000000000000, -1.000000000000000000 ) ) ;
#286 = ADVANCED_FACE ( 'NONE', ( #298 ), #119, .F. ) ;
#287 = APPROVAL_PERSON_ORGANIZATION ( #95, #215, #167 ) ;
#288 = DIRECTION ( 'NONE',  ( -0.0000000000000000000, -0.0000000000000000000, -1.000000000000000000 ) ) ;
#289 = AXIS2_PLACEMENT_3D ( 'NONE', #301, #340, #11 ) ;
#290 = AXIS2_PLACEMENT_3D ( 'NONE', #223, #105, #141 ) ;
#291 = DIRECTION ( 'NONE',  ( -0.0000000000000000000, -0.0000000000000000000, -1.000000000000000000 ) ) ;
#292 = APPROVAL_STATUS ( 'not_yet_approved' ) ;
#293 = ADVANCED_FACE ( 'NONE', ( #371 ), #163, .F. ) ;
#294 = EDGE_CURVE ( 'NONE', #161, #128, #137, .T. ) ;
#295 = AXIS2_PLACEMENT_3D ( 'NONE', #101, #291, #329 ) ;
#296 = DIRECTION ( 'NONE',  ( -1.000000000000000000, 0.0000000000000000000, 0.0000000000000000000 ) ) ;
#297 = PRODUCT_DEFINITION_FORMATION_WITH_SPECIFIED_SOURCE ( 'ANY', '', #307, .NOT_KNOWN. ) ;
#298 = FACE_OUTER_BOUND ( 'NONE', #309, .T. ) ;
#299 = DIRECTION ( 'NONE',  ( -1.000000000000000000, 0.0000000000000000000, 0.0000000000000000000 ) ) ;
#300 = ORIENTED_EDGE ( 'NONE', *, *, #258, .F. ) ;
#301 = CARTESIAN_POINT ( 'NONE',  ( 0.0000000000000000000, 0.0000000000000000000, 1.400000000000000100 ) ) ;
#302 = ORIENTED_EDGE ( 'NONE', *, *, #169, .T. ) ;
#303 = CALENDAR_DATE ( 2017, 17, 2 ) ;
#304 = DIRECTION ( 'NONE',  ( -1.000000000000000000, 0.0000000000000000000, 0.0000000000000000000 ) ) ;
#305 = AXIS2_PLACEMENT_3D ( 'NONE', #356, #26, #67 ) ;
#306 = VERTEX_POINT ( 'NONE', #87 ) ;
#307 = PRODUCT ( 'C-346-OP', 'C-346-OP', '', ( #338 ) ) ;
#308 = PERSON_AND_ORGANIZATION ( #152, #365 ) ;
#309 = EDGE_LOOP ( 'NONE', ( #117, #42, #13, #56 ) ) ;
#310 = DIRECTION ( 'NONE',  ( -1.000000000000000000, 0.0000000000000000000, 0.0000000000000000000 ) ) ;
#311 = ADVANCED_FACE ( 'NONE', ( #145, #17 ), #53, .T. ) ;
#312 = DIRECTION ( 'NONE',  ( -0.0000000000000000000, -0.0000000000000000000, -1.000000000000000000 ) ) ;
#313 = COORDINATED_UNIVERSAL_TIME_OFFSET ( 9, 0, .AHEAD. ) ;
#314 = CARTESIAN_POINT ( 'NONE',  ( 0.0000000000000000000, 0.0000000000000000000, 0.5000000000000004400 ) ) ;
#315 = CC_DESIGN_PERSON_AND_ORGANIZATION_ASSIGNMENT ( #6, #49, ( #307 ) ) ;
#316 = CARTESIAN_POINT ( 'NONE',  ( -15.00000000000000000, 0.0000000000000000000, 0.5000000000000004400 ) ) ;
#317 = ORIENTED_EDGE ( 'NONE', *, *, #372, .T. ) ;
#318 = PRODUCT_DEFINITION ( 'UNKNOWN', '', #297, #24 ) ;
#319 = PERSON_AND_ORGANIZATION_ROLE ( 'creator' ) ;
#320 = AXIS2_PLACEMENT_3D ( 'NONE', #108, #143, #184 ) ;
#321 = ADVANCED_BREP_SHAPE_REPRESENTATION ( 'C-346-OP', ( #90, #43 ), #33 ) ;
#322 = ORIENTED_EDGE ( 'NONE', *, *, #52, .T. ) ;
#323 =( LENGTH_UNIT ( ) NAMED_UNIT ( * ) SI_UNIT ( .MILLI., .METRE. ) );
#324 = FACE_OUTER_BOUND ( 'NONE', #266, .T. ) ;
#325 = DIRECTION ( 'NONE',  ( -1.000000000000000000, 0.0000000000000000000, 0.0000000000000000000 ) ) ;
#326 = CC_DESIGN_APPROVAL ( #12, ( #318 ) ) ;
#327 = DIRECTION ( 'NONE',  ( -1.000000000000000000, 0.0000000000000000000, 0.0000000000000000000 ) ) ;
#328 = CIRCLE ( 'NONE', #130, 11.04999999999999900 ) ;
#329 = DIRECTION ( 'NONE',  ( -1.000000000000000000, 0.0000000000000000000, 0.0000000000000000000 ) ) ;
#330 = CC_DESIGN_PERSON_AND_ORGANIZATION_ASSIGNMENT ( #308, #348, ( #318 ) ) ;
#331 = APPROVAL_ROLE ( '' ) ;
#332 = DIRECTION ( 'NONE',  ( -1.000000000000000000, 0.0000000000000000000, 0.0000000000000000000 ) ) ;
#333 = CARTESIAN_POINT ( 'NONE',  ( 0.0000000000000000000, 0.0000000000000000000, -4.111510791366901800 ) ) ;
#334 = CALENDAR_DATE ( 2017, 17, 2 ) ;
#335 = CARTESIAN_POINT ( 'NONE',  ( 11.04999999999999900, 1.353234713057825300E-015, 1.400000000000000100 ) ) ;
#336 = CIRCLE ( 'NONE', #135, 15.00000000000000000 ) ;
#337 = AXIS2_PLACEMENT_3D ( 'NONE', #50, #158, #85 ) ;
#338 = MECHANICAL_CONTEXT ( 'NONE', #30, 'mechanical' ) ;
#339 = ORIENTED_EDGE ( 'NONE', *, *, #253, .F. ) ;
#340 = DIRECTION ( 'NONE',  ( -0.0000000000000000000, -0.0000000000000000000, -1.000000000000000000 ) ) ;
#341 = EDGE_LOOP ( 'NONE', ( #232, #165, #83, #131 ) ) ;
#342 = COORDINATED_UNIVERSAL_TIME_OFFSET ( 9, 0, .AHEAD. ) ;
#343 = PLANE ( 'NONE',  #5 ) ;
#344 = CIRCLE ( 'NONE', #19, 11.04999999999999900 ) ;
#345 = EDGE_CURVE ( 'NONE', #244, #238, #148, .T. ) ;
#346 = AXIS2_PLACEMENT_3D ( 'NONE', #192, #230, #267 ) ;
#347 = ORIENTED_EDGE ( 'NONE', *, *, #196, .F. ) ;
#348 = PERSON_AND_ORGANIZATION_ROLE ( 'creator' ) ;
#349 = ADVANCED_FACE ( 'NONE', ( #273 ), #31, .T. ) ;
#350 = ORIENTED_EDGE ( 'NONE', *, *, #82, .F. ) ;
#351 = CARTESIAN_POINT ( 'NONE',  ( 0.0000000000000000000, 0.0000000000000000000, 0.5000000000000004400 ) ) ;
#352 = AXIS2_PLACEMENT_3D ( 'NONE', #249, #285, #325 ) ;
#353 = CARTESIAN_POINT ( 'NONE',  ( -9.599999999999999600, 0.0000000000000000000, 0.0000000000000000000 ) ) ;
#354 = APPROVAL_PERSON_ORGANIZATION ( #121, #12, #200 ) ;
#355 = DIRECTION ( 'NONE',  ( -0.0000000000000000000, -0.0000000000000000000, -1.000000000000000000 ) ) ;
#356 = CARTESIAN_POINT ( 'NONE',  ( 0.0000000000000000000, 0.0000000000000000000, 1.400000000000000100 ) ) ;
#357 = CC_DESIGN_PERSON_AND_ORGANIZATION_ASSIGNMENT ( #283, #319, ( #297 ) ) ;
#358 = AXIS2_PLACEMENT_3D ( 'NONE', #364, #34, #72 ) ;
#359 = PERSON_AND_ORGANIZATION ( #152, #365 ) ;
#360 = AXIS2_PLACEMENT_3D ( 'NONE', #314, #355, #25 ) ;
#361 = CARTESIAN_POINT ( 'NONE',  ( -11.04999999999999900, 0.0000000000000000000, 8.000000000000000000 ) ) ;
#362 = CARTESIAN_POINT ( 'NONE',  ( 0.0000000000000000000, 0.0000000000000000000, 8.000000000000000000 ) ) ;
#363 = LOCAL_TIME ( 15, 49, 36.00000000000000000, #217 ) ;
#364 = CARTESIAN_POINT ( 'NONE',  ( 0.0000000000000000000, 0.0000000000000000000, 0.0000000000000000000 ) ) ;
#365 = ORGANIZATION ( 'UNSPECIFIED', 'UNSPECIFIED', '' ) ;
#366 = AXIS2_PLACEMENT_3D ( 'NONE', #134, #172, #218 ) ;
#367 = FACE_BOUND ( 'NONE', #263, .T. ) ;
#368 = CARTESIAN_POINT ( 'NONE',  ( 11.04999999999999900, 1.353234713057825300E-015, 8.000000000000000000 ) ) ;
#369 = CC_DESIGN_PERSON_AND_ORGANIZATION_ASSIGNMENT ( #104, #140, ( #250 ) ) ;
#370 = VECTOR ( 'NONE', #81, 1000.000000000000200 ) ;
#371 = FACE_OUTER_BOUND ( 'NONE', #153, .T. ) ;
#372 = EDGE_CURVE ( 'NONE', #18, #128, #97, .T. ) ;
#373 = DATE_AND_TIME ( #206, #363 ) ;
#374 = FACE_OUTER_BOUND ( 'NONE', #58, .T. ) ;
#375 = APPLICATION_PROTOCOL_DEFINITION ( 'international standard', 'config_control_design', 1994, #30 ) ;
#376 = PLANE ( 'NONE',  #290 ) ;
#377 = CIRCLE ( 'NONE', #352, 15.00000000000000000 ) ;
#378 = LINE ( 'NONE', #41, #271 ) ;
#379 = PRODUCT_DEFINITION_SHAPE ( 'NONE', 'NONE',  #318 ) ;
ENDSEC;
END-ISO-10303-21;
