ISO-10303-21;
HEADER;
FILE_DESCRIPTION (( 'STEP AP203' ),
    '1' );
FILE_NAME ('C-31-6-EP-UL.STEP',
    '2012-08-23T02:08:09',
    ( '11sw' ),
    ( '^LQ»¢®ïÐ' ),
    'SwSTEP 2.0',
    'SolidWorks 2011',
    '' );
FILE_SCHEMA (( 'CONFIG_CONTROL_DESIGN' ));
ENDSEC;

DATA;
#1 = DESIGN_CONTEXT ( 'detailed design', #154, 'design' ) ;
#2 = PRODUCT_DEFINITION_SHAPE ( 'NONE', 'NONE',  #190 ) ;
#3 = ADVANCED_FACE ( 'NONE', ( #219 ), #35, .T. ) ;
#4 = ADVANCED_FACE ( 'NONE', ( #218 ), #326, .T. ) ;
#5 = ADVANCED_FACE ( 'NONE', ( #217 ), #320, .T. ) ;
#6 = ADVANCED_FACE ( 'NONE', ( #216 ), #215, .F. ) ;
#7 = ADVANCED_FACE ( 'NONE', ( #214 ), #309, .T. ) ;
#8 =( GEOMETRIC_REPRESENTATION_CONTEXT ( 3 ) GLOBAL_UNCERTAINTY_ASSIGNED_CONTEXT ( ( #347 ) ) GLOBAL_UNIT_ASSIGNED_CONTEXT ( ( #50, #49, #48 ) ) REPRESENTATION_CONTEXT ( 'NONE', 'WORKASPACE' ) );
#9 = ADVANCED_FACE ( 'NONE', ( #213, #212 ), #143, .T. ) ;
#10 = EDGE_CURVE ( 'NONE', #242, #239, #337, .T. ) ;
#11 = EDGE_CURVE ( 'NONE', #233, #236, #341, .T. ) ;
#12 = EDGE_CURVE ( 'NONE', #237, #241, #327, .T. ) ;
#13 = EDGE_CURVE ( 'NONE', #241, #237, #319, .T. ) ;
#14 = EDGE_CURVE ( 'NONE', #234, #237, #210, .T. ) ;
#15 = EDGE_CURVE ( 'NONE', #234, #243, #339, .T. ) ;
#16 = EDGE_CURVE ( 'NONE', #239, #238, #314, .T. ) ;
#17 = EDGE_CURVE ( 'NONE', #244, #240, #336, .T. ) ;
#18 = EDGE_CURVE ( 'NONE', #235, #244, #209, .T. ) ;
#19 = EDGE_CURVE ( 'NONE', #240, #244, #340, .T. ) ;
#20 = ADVANCED_FACE ( 'NONE', ( #208 ), #342, .T. ) ;
#21 = ADVANCED_FACE ( 'NONE', ( #211 ), #331, .T. ) ;
#22 = ADVANCED_FACE ( 'NONE', ( #207 ), #206, .F. ) ;
#23 = ADVANCED_FACE ( 'NONE', ( #205 ), #106, .T. ) ;
#24 = EDGE_CURVE ( 'NONE', #238, #240, #204, .T. ) ;
#25 = EDGE_CURVE ( 'NONE', #236, #240, #203, .T. ) ;
#26 = EDGE_CURVE ( 'NONE', #243, #234, #324, .T. ) ;
#27 = EDGE_CURVE ( 'NONE', #233, #244, #202, .T. ) ;
#28 = EDGE_CURVE ( 'NONE', #243, #241, #201, .T. ) ;
#29 = EDGE_CURVE ( 'NONE', #236, #233, #332, .T. ) ;
#30 = EDGE_CURVE ( 'NONE', #242, #235, #344, .T. ) ;
#31 = EDGE_CURVE ( 'NONE', #235, #238, #175, .T. ) ;
#32 = EDGE_CURVE ( 'NONE', #239, #242, #193, .T. ) ;
#33 = EDGE_CURVE ( 'NONE', #238, #235, #192, .T. ) ;
#34 = AXIS2_PLACEMENT_3D ( 'NONE', #113, #115, #116 ) ;
#35 = CONICAL_SURFACE ( 'NONE', #34, 7.250000000000000900, 0.1434522633036585900 ) ;
#36 = MANIFOLD_SOLID_BREP ( 'ñ]1', #220 ) ;
#37 = ADVANCED_BREP_SHAPE_REPRESENTATION ( 'C-31-6-EP-UL', ( #36, #194 ), #8 ) ;
#38 = ADVANCED_FACE ( 'NONE', ( #200 ), #66, .T. ) ;
#39 = LOCAL_TIME ( 11, 8, 9.000000000000000000, #287 ) ;
#40 = LOCAL_TIME ( 11, 8, 9.000000000000000000, #299 ) ;
#41 = LOCAL_TIME ( 11, 8, 9.000000000000000000, #282 ) ;
#42 = LOCAL_TIME ( 11, 8, 9.000000000000000000, #292 ) ;
#43 = LOCAL_TIME ( 11, 8, 9.000000000000000000, #304 ) ;
#44 = APPROVAL_ROLE ( '' ) ;
#45 = DIRECTION ( 'NONE',  ( 1.000000000000000000, 0.0000000000000000000, 0.0000000000000000000 ) ) ;
#46 = DIRECTION ( 'NONE',  ( 0.0000000000000000000, 0.0000000000000000000, 1.000000000000000000 ) ) ;
#47 = CARTESIAN_POINT ( 'NONE',  ( 0.0000000000000000000, 0.0000000000000000000, 0.0000000000000000000 ) ) ;
#48 =( NAMED_UNIT ( * ) SI_UNIT ( $, .STERADIAN. ) SOLID_ANGLE_UNIT ( ) );
#49 =( NAMED_UNIT ( * ) PLANE_ANGLE_UNIT ( ) SI_UNIT ( $, .RADIAN. ) );
#50 =( LENGTH_UNIT ( ) NAMED_UNIT ( * ) SI_UNIT ( .MILLI., .METRE. ) );
#51 = CARTESIAN_POINT ( 'NONE',  ( 0.0000000000000000000, 0.0000000000000000000, -10.49999999999999600 ) ) ;
#52 = CARTESIAN_POINT ( 'NONE',  ( 7.041719095097276900E-016, 0.0000000000000000000, -5.749999999999996400 ) ) ;
#53 = CARTESIAN_POINT ( 'NONE',  ( 6.405664613268291600E-016, -7.000000000000006200, -4.213455261770487700 ) ) ;
#54 = CARTESIAN_POINT ( 'NONE',  ( 7.041719095097276900E-016, 22.49999999999999600, -5.749999999999996400 ) ) ;
#55 = CARTESIAN_POINT ( 'NONE',  ( 1.285879139104720400E-015, 0.0000000000000000000, 10.49999999999999600 ) ) ;
#56 = CARTESIAN_POINT ( 'NONE',  ( 0.0000000000000000000, -7.000000000000006200, 4.213455261770487700 ) ) ;
#57 = CARTESIAN_POINT ( 'NONE',  ( 0.0000000000000000000, -5.953095484297746200, 6.247788939787325200 ) ) ;
#58 = CARTESIAN_POINT ( 'NONE',  ( 0.0000000000000000000, 22.49999999999999600, 5.749999999999996400 ) ) ;
#59 = CARTESIAN_POINT ( 'NONE',  ( 1.086874034243275800E-015, 22.49999999999999600, 7.250000000000000900 ) ) ;
#60 = CARTESIAN_POINT ( 'NONE',  ( 1.025506305895299400E-015, -5.953095484297746200, -6.247788939787325200 ) ) ;
#61 = CARTESIAN_POINT ( 'NONE',  ( 0.0000000000000000000, 0.0000000000000000000, 5.749999999999996400 ) ) ;
#62 = CARTESIAN_POINT ( 'NONE',  ( 0.0000000000000000000, 22.49999999999999600, -7.250000000000000900 ) ) ;
#63 = DIRECTION ( 'NONE',  ( 0.0000000000000000000, 0.0000000000000000000, 1.000000000000000000 ) ) ;
#64 = DIRECTION ( 'NONE',  ( -0.0000000000000000000, 1.000000000000000000, 0.0000000000000000000 ) ) ;
#65 = CARTESIAN_POINT ( 'NONE',  ( 0.0000000000000000000, -3.520859547548638500E-016, 0.0000000000000000000 ) ) ;
#66 = PLANE ( 'NONE',  #195 ) ;
#67 = DIRECTION ( 'NONE',  ( 0.0000000000000000000, 0.0000000000000000000, 1.000000000000000000 ) ) ;
#68 = DIRECTION ( 'NONE',  ( -0.0000000000000000000, 1.000000000000000000, -0.0000000000000000000 ) ) ;
#69 = APPLICATION_PROTOCOL_DEFINITION ( 'international standard', 'config_control_design', 1994, #160 ) ;
#70 = CARTESIAN_POINT ( 'NONE',  ( 0.0000000000000000000, -5.953095484297746200, 0.0000000000000000000 ) ) ;
#71 = DIRECTION ( 'NONE',  ( 0.0000000000000000000, 0.0000000000000000000, 1.000000000000000000 ) ) ;
#72 = DIRECTION ( 'NONE',  ( -0.0000000000000000000, 1.000000000000000000, -0.0000000000000000000 ) ) ;
#73 = CARTESIAN_POINT ( 'NONE',  ( 0.0000000000000000000, -7.000000000000006200, 0.0000000000000000000 ) ) ;
#74 = DIRECTION ( 'NONE',  ( 0.0000000000000000000, 0.0000000000000000000, 1.000000000000000000 ) ) ;
#75 = DIRECTION ( 'NONE',  ( -0.0000000000000000000, 1.000000000000000000, -0.0000000000000000000 ) ) ;
#76 = CARTESIAN_POINT ( 'NONE',  ( 0.0000000000000000000, -5.953095484297746200, 0.0000000000000000000 ) ) ;
#77 = PERSON_AND_ORGANIZATION_ROLE ( 'creator' ) ;
#78 = DATE_TIME_ROLE ( 'creation_date' ) ;
#79 = DIRECTION ( 'NONE',  ( 1.224646799147353500E-016, 0.0000000000000000000, -1.000000000000000000 ) ) ;
#80 = DIRECTION ( 'NONE',  ( 1.000000000000000000, 0.0000000000000000000, 1.224646799147353200E-016 ) ) ;
#81 = PERSON_AND_ORGANIZATION_ROLE ( 'creator' ) ;
#82 = CARTESIAN_POINT ( 'NONE',  ( 5.159994499677799700E-016, -4.500000000000002700, -4.213455261770486800 ) ) ;
#83 = DIRECTION ( 'NONE',  ( 0.0000000000000000000, 0.0000000000000000000, 1.000000000000000000 ) ) ;
#84 = DIRECTION ( 'NONE',  ( -0.0000000000000000000, 1.000000000000000000, -0.0000000000000000000 ) ) ;
#85 = CARTESIAN_POINT ( 'NONE',  ( 0.0000000000000000000, 22.49999999999999600, 0.0000000000000000000 ) ) ;
#86 = DIRECTION ( 'NONE',  ( -0.0000000000000000000, 1.000000000000000000, -0.0000000000000000000 ) ) ;
#87 = PERSON_AND_ORGANIZATION_ROLE ( 'design_supplier' ) ;
#88 = CARTESIAN_POINT ( 'NONE',  ( 7.041719095097276900E-016, 26.19748375073886800, -5.749999999999996400 ) ) ;
#89 = DIRECTION ( 'NONE',  ( 0.0000000000000000000, -0.9897283568439538800, -0.1429607626552376300 ) ) ;
#90 = CARTESIAN_POINT ( 'NONE',  ( 0.0000000000000000000, 22.49999999999999600, -7.250000000000000900 ) ) ;
#91 = DIRECTION ( 'NONE',  ( 0.0000000000000000000, 0.0000000000000000000, 1.000000000000000000 ) ) ;
#92 = DIRECTION ( 'NONE',  ( -0.0000000000000000000, 1.000000000000000000, -0.0000000000000000000 ) ) ;
#93 = CARTESIAN_POINT ( 'NONE',  ( 0.0000000000000000000, 0.0000000000000000000, 0.0000000000000000000 ) ) ;
#94 = DIRECTION ( 'NONE',  ( 0.0000000000000000000, 0.0000000000000000000, 1.000000000000000000 ) ) ;
#95 = DIRECTION ( 'NONE',  ( 1.750764403894012300E-017, -0.9897283568439538800, 0.1429607626552376300 ) ) ;
#96 = CARTESIAN_POINT ( 'NONE',  ( 8.878689293818312000E-016, 22.49999999999999600, 7.250000000000000900 ) ) ;
#97 = DIRECTION ( 'NONE',  ( 0.0000000000000000000, 0.8137334712067352300, 0.5812381937190960200 ) ) ;
#98 = CARTESIAN_POINT ( 'NONE',  ( 0.0000000000000000000, 0.0000000000000000000, 10.49999999999999600 ) ) ;
#99 = APPROVAL_ROLE ( '' ) ;
#100 = DIRECTION ( 'NONE',  ( 0.0000000000000000000, -0.0000000000000000000, -1.000000000000000000 ) ) ;
#101 = DIRECTION ( 'NONE',  ( 0.0000000000000000000, -1.000000000000000000, 0.0000000000000000000 ) ) ;
#102 = APPLICATION_PROTOCOL_DEFINITION ( 'international standard', 'config_control_design', 1994, #154 ) ;
#103 = APPROVAL_ROLE ( '' ) ;
#104 = APPROVAL_STATUS ( 'not_yet_approved' ) ;
#105 = CARTESIAN_POINT ( 'NONE',  ( 0.0000000000000000000, -7.000000000000000900, 4.213455261770486800 ) ) ;
#106 = PLANE ( 'NONE',  #345 ) ;
#107 = DIRECTION ( 'NONE',  ( 0.0000000000000000000, 0.0000000000000000000, 1.000000000000000000 ) ) ;
#108 = DIRECTION ( 'NONE',  ( -0.0000000000000000000, 1.000000000000000000, -0.0000000000000000000 ) ) ;
#109 = CARTESIAN_POINT ( 'NONE',  ( 0.0000000000000000000, 26.19748375073886800, 0.0000000000000000000 ) ) ;
#110 = CARTESIAN_POINT ( 'NONE',  ( 0.0000000000000000000, 22.49999999999999600, 0.0000000000000000000 ) ) ;
#111 = DIRECTION ( 'NONE',  ( 0.0000000000000000000, 0.0000000000000000000, 1.000000000000000000 ) ) ;
#112 = DIRECTION ( 'NONE',  ( -0.0000000000000000000, 1.000000000000000000, -0.0000000000000000000 ) ) ;
#113 = CARTESIAN_POINT ( 'NONE',  ( 0.0000000000000000000, 22.49999999999999600, 0.0000000000000000000 ) ) ;
#114 = DIRECTION ( 'NONE',  ( -0.0000000000000000000, 1.000000000000000000, -0.0000000000000000000 ) ) ;
#115 = DIRECTION ( 'NONE',  ( 0.0000000000000000000, -1.000000000000000000, 0.0000000000000000000 ) ) ;
#116 = DIRECTION ( 'NONE',  ( 0.0000000000000000000, 0.0000000000000000000, -1.000000000000000000 ) ) ;
#117 = CARTESIAN_POINT ( 'NONE',  ( 0.0000000000000000000, 0.0000000000000000000, 0.0000000000000000000 ) ) ;
#118 = DIRECTION ( 'NONE',  ( 0.0000000000000000000, 0.0000000000000000000, 1.000000000000000000 ) ) ;
#119 = DIRECTION ( 'NONE',  ( 0.0000000000000000000, 0.0000000000000000000, -1.000000000000000000 ) ) ;
#120 = CARTESIAN_POINT ( 'NONE',  ( 0.0000000000000000000, -4.500000000000002700, 0.0000000000000000000 ) ) ;
#121 = DIRECTION ( 'NONE',  ( 0.0000000000000000000, -1.000000000000000000, 0.0000000000000000000 ) ) ;
#122 = PERSON_AND_ORGANIZATION_ROLE ( 'design_owner' ) ;
#123 = CARTESIAN_POINT ( 'NONE',  ( 0.0000000000000000000, 22.49999999999999600, 0.0000000000000000000 ) ) ;
#124 = DIRECTION ( 'NONE',  ( -0.0000000000000000000, 1.000000000000000000, -0.0000000000000000000 ) ) ;
#125 = DIRECTION ( 'NONE',  ( 0.0000000000000000000, 0.0000000000000000000, 1.000000000000000000 ) ) ;
#126 = DIRECTION ( 'NONE',  ( 0.0000000000000000000, 0.0000000000000000000, 1.000000000000000000 ) ) ;
#127 = DIRECTION ( 'NONE',  ( -0.0000000000000000000, 1.000000000000000000, -0.0000000000000000000 ) ) ;
#128 = CARTESIAN_POINT ( 'NONE',  ( 0.0000000000000000000, 0.0000000000000000000, 0.0000000000000000000 ) ) ;
#129 = DIRECTION ( 'NONE',  ( 7.118114934802801500E-017, 0.8137334712067352300, -0.5812381937190960200 ) ) ;
#130 = CARTESIAN_POINT ( 'NONE',  ( 1.285879139104720400E-015, 0.0000000000000000000, -10.49999999999999600 ) ) ;
#131 = CARTESIAN_POINT ( 'NONE',  ( 0.0000000000000000000, -4.500000000000002700, 0.0000000000000000000 ) ) ;
#132 = DIRECTION ( 'NONE',  ( -0.0000000000000000000, 1.000000000000000000, -0.0000000000000000000 ) ) ;
#133 = MECHANICAL_CONTEXT ( 'NONE', #160, 'mechanical' ) ;
#134 = DIRECTION ( 'NONE',  ( 0.0000000000000000000, 0.0000000000000000000, 1.000000000000000000 ) ) ;
#135 = CARTESIAN_POINT ( 'NONE',  ( 0.0000000000000000000, 26.19748375073886800, 0.0000000000000000000 ) ) ;
#136 = DIRECTION ( 'NONE',  ( -0.0000000000000000000, 1.000000000000000000, -0.0000000000000000000 ) ) ;
#137 = DIRECTION ( 'NONE',  ( 0.0000000000000000000, 0.0000000000000000000, 1.000000000000000000 ) ) ;
#138 = CARTESIAN_POINT ( 'NONE',  ( 0.0000000000000000000, 0.0000000000000000000, 0.0000000000000000000 ) ) ;
#139 = APPROVAL_STATUS ( 'not_yet_approved' ) ;
#140 = DIRECTION ( 'NONE',  ( -0.0000000000000000000, 1.000000000000000000, -0.0000000000000000000 ) ) ;
#141 = DIRECTION ( 'NONE',  ( 0.0000000000000000000, 0.0000000000000000000, 1.000000000000000000 ) ) ;
#142 = SECURITY_CLASSIFICATION_LEVEL ( 'unclassified' ) ;
#143 = PLANE ( 'NONE',  #325 ) ;
#144 = CARTESIAN_POINT ( 'NONE',  ( 0.0000000000000000000, 22.49999999999999600, 5.749999999999996400 ) ) ;
#145 = DIRECTION ( 'NONE',  ( -0.0000000000000000000, 1.000000000000000000, 0.0000000000000000000 ) ) ;
#146 = DIRECTION ( 'NONE',  ( 0.0000000000000000000, 0.0000000000000000000, 1.000000000000000000 ) ) ;
#147 = CARTESIAN_POINT ( 'NONE',  ( 0.0000000000000000000, -7.000000000000006200, 0.0000000000000000000 ) ) ;
#148 = DIRECTION ( 'NONE',  ( -0.0000000000000000000, 1.000000000000000000, -0.0000000000000000000 ) ) ;
#149 = DIRECTION ( 'NONE',  ( 0.0000000000000000000, 0.0000000000000000000, 1.000000000000000000 ) ) ;
#150 = CARTESIAN_POINT ( 'NONE',  ( 0.0000000000000000000, 22.49999999999999600, 0.0000000000000000000 ) ) ;
#151 = CARTESIAN_POINT ( 'NONE',  ( 0.0000000000000000000, -4.500000000000002700, 4.213455261770486800 ) ) ;
#152 = DIRECTION ( 'NONE',  ( -0.0000000000000000000, 1.000000000000000000, -0.0000000000000000000 ) ) ;
#153 = DIRECTION ( 'NONE',  ( 0.0000000000000000000, 0.0000000000000000000, 1.000000000000000000 ) ) ;
#154 = APPLICATION_CONTEXT ( 'configuration controlled 3d designs of mechanical parts and assemblies' ) ;
#155 = CARTESIAN_POINT ( 'NONE',  ( 0.0000000000000000000, 22.49999999999999600, 0.0000000000000000000 ) ) ;
#156 = DIRECTION ( 'NONE',  ( 0.0000000000000000000, 0.0000000000000000000, 1.000000000000000000 ) ) ;
#157 = DIRECTION ( 'NONE',  ( -0.0000000000000000000, 1.000000000000000000, -0.0000000000000000000 ) ) ;
#158 = DIRECTION ( 'NONE',  ( -0.0000000000000000000, 1.000000000000000000, -0.0000000000000000000 ) ) ;
#159 = DIRECTION ( 'NONE',  ( 0.0000000000000000000, 0.0000000000000000000, 1.000000000000000000 ) ) ;
#160 = APPLICATION_CONTEXT ( 'configuration controlled 3d designs of mechanical parts and assemblies' ) ;
#161 = APPROVAL_STATUS ( 'not_yet_approved' ) ;
#162 = DIRECTION ( 'NONE',  ( 0.0000000000000000000, 0.0000000000000000000, 1.000000000000000000 ) ) ;
#163 = DATE_TIME_ROLE ( 'classification_date' ) ;
#164 = DIRECTION ( 'NONE',  ( -0.0000000000000000000, 1.000000000000000000, -0.0000000000000000000 ) ) ;
#165 = CARTESIAN_POINT ( 'NONE',  ( 0.0000000000000000000, 26.19748375073886800, 5.749999999999996400 ) ) ;
#166 = DIRECTION ( 'NONE',  ( -1.000000000000000000, 0.0000000000000000000, 0.0000000000000000000 ) ) ;
#167 = PERSON_AND_ORGANIZATION_ROLE ( 'classification_officer' ) ;
#168 = CARTESIAN_POINT ( 'NONE',  ( 0.0000000000000000000, 0.0000000000000000000, 0.0000000000000000000 ) ) ;
#169 = DIRECTION ( 'NONE',  ( -0.0000000000000000000, 1.000000000000000000, -0.0000000000000000000 ) ) ;
#170 = CARTESIAN_POINT ( 'NONE',  ( 0.0000000000000000000, 0.0000000000000000000, 0.0000000000000000000 ) ) ;
#171 = AXIS2_PLACEMENT_3D ( 'NONE', #76, #75, #74 ) ;
#172 = AXIS2_PLACEMENT_3D ( 'NONE', #85, #84, #83 ) ;
#173 = PRODUCT_RELATED_PRODUCT_CATEGORY ( 'detail', '', ( #349 ) ) ;
#174 = CC_DESIGN_SECURITY_CLASSIFICATION ( #180, ( #185 ) ) ;
#175 = CIRCLE ( 'NONE', #171, 6.247788939787325200 ) ;
#176 = CC_DESIGN_APPROVAL ( #177, ( #180 ) ) ;
#177 = APPROVAL ( #161, 'UNSPECIFIED' ) ;
#178 = CC_DESIGN_DATE_AND_TIME_ASSIGNMENT ( #301, #163, ( #180 ) ) ;
#179 = CC_DESIGN_PERSON_AND_ORGANIZATION_ASSIGNMENT ( #298, #167, ( #180 ) ) ;
#180 = SECURITY_CLASSIFICATION ( '', '', #142 ) ;
#181 = CC_DESIGN_PERSON_AND_ORGANIZATION_ASSIGNMENT ( #297, #87, ( #185 ) ) ;
#182 = CC_DESIGN_PERSON_AND_ORGANIZATION_ASSIGNMENT ( #296, #81, ( #185 ) ) ;
#183 = CC_DESIGN_APPROVAL ( #184, ( #185 ) ) ;
#184 = APPROVAL ( #139, 'UNSPECIFIED' ) ;
#185 = PRODUCT_DEFINITION_FORMATION_WITH_SPECIFIED_SOURCE ( 'ANY', '', #349, .NOT_KNOWN. ) ;
#186 = CC_DESIGN_DATE_AND_TIME_ASSIGNMENT ( #289, #78, ( #190 ) ) ;
#187 = CC_DESIGN_PERSON_AND_ORGANIZATION_ASSIGNMENT ( #286, #77, ( #190 ) ) ;
#188 = CC_DESIGN_APPROVAL ( #189, ( #190 ) ) ;
#189 = APPROVAL ( #104, 'UNSPECIFIED' ) ;
#190 = PRODUCT_DEFINITION ( 'UNKNOWN', '', #185, #1 ) ;
#191 = CC_DESIGN_PERSON_AND_ORGANIZATION_ASSIGNMENT ( #279, #122, ( #349 ) ) ;
#192 = CIRCLE ( 'NONE', #197, 6.247788939787325200 ) ;
#193 = CIRCLE ( 'NONE', #199, 4.213455261770487700 ) ;
#194 = AXIS2_PLACEMENT_3D ( 'NONE', #47, #46, #45 ) ;
#195 = AXIS2_PLACEMENT_3D ( 'NONE', #65, #64, #63 ) ;
#196 = AXIS2_PLACEMENT_3D ( 'NONE', #82, #80, #79 ) ;
#197 = AXIS2_PLACEMENT_3D ( 'NONE', #70, #68, #67 ) ;
#198 = VECTOR ( 'NONE', #86, 1000.000000000000000 ) ;
#199 = AXIS2_PLACEMENT_3D ( 'NONE', #73, #72, #71 ) ;
#200 = FACE_OUTER_BOUND ( 'NONE', #221, .T. ) ;
#201 = LINE ( 'NONE', #88, #198 ) ;
#202 = LINE ( 'NONE', #90, #318 ) ;
#203 = LINE ( 'NONE', #96, #323 ) ;
#204 = LINE ( 'NONE', #98, #310 ) ;
#205 = FACE_OUTER_BOUND ( 'NONE', #223, .T. ) ;
#206 = CYLINDRICAL_SURFACE ( 'NONE', #321, 5.749999999999996400 ) ;
#207 = FACE_OUTER_BOUND ( 'NONE', #229, .T. ) ;
#208 = FACE_OUTER_BOUND ( 'NONE', #231, .T. ) ;
#209 = LINE ( 'NONE', #130, #343 ) ;
#210 = LINE ( 'NONE', #165, #333 ) ;
#211 = FACE_OUTER_BOUND ( 'NONE', #224, .T. ) ;
#212 = FACE_BOUND ( 'NONE', #226, .T. ) ;
#213 = FACE_OUTER_BOUND ( 'NONE', #222, .T. ) ;
#214 = FACE_OUTER_BOUND ( 'NONE', #232, .T. ) ;
#215 = CYLINDRICAL_SURFACE ( 'NONE', #329, 5.749999999999996400 ) ;
#216 = FACE_OUTER_BOUND ( 'NONE', #228, .T. ) ;
#217 = FACE_OUTER_BOUND ( 'NONE', #230, .T. ) ;
#218 = FACE_OUTER_BOUND ( 'NONE', #225, .T. ) ;
#219 = FACE_OUTER_BOUND ( 'NONE', #227, .T. ) ;
#220 = CLOSED_SHELL ( 'NONE', ( #5, #7, #20, #22, #6, #9, #3, #21, #4, #23, #38 ) ) ;
#221 = EDGE_LOOP ( 'NONE', ( #249, #354 ) ) ;
#222 = EDGE_LOOP ( 'NONE', ( #257, #353 ) ) ;
#223 = EDGE_LOOP ( 'NONE', ( #269, #260 ) ) ;
#224 = EDGE_LOOP ( 'NONE', ( #264, #265, #253, #262 ) ) ;
#225 = EDGE_LOOP ( 'NONE', ( #356, #250, #275, #272 ) ) ;
#226 = EDGE_LOOP ( 'NONE', ( #270, #351 ) ) ;
#227 = EDGE_LOOP ( 'NONE', ( #352, #350, #252, #355 ) ) ;
#228 = EDGE_LOOP ( 'NONE', ( #273, #276, #258, #357 ) ) ;
#229 = EDGE_LOOP ( 'NONE', ( #259, #268, #274, #271 ) ) ;
#230 = EDGE_LOOP ( 'NONE', ( #251, #245, #247, #246 ) ) ;
#231 = EDGE_LOOP ( 'NONE', ( #263, #255, #254, #256 ) ) ;
#232 = EDGE_LOOP ( 'NONE', ( #248, #267, #266, #261 ) ) ;
#233 = VERTEX_POINT ( 'NONE', #62 ) ;
#234 = VERTEX_POINT ( 'NONE', #61 ) ;
#235 = VERTEX_POINT ( 'NONE', #60 ) ;
#236 = VERTEX_POINT ( 'NONE', #59 ) ;
#237 = VERTEX_POINT ( 'NONE', #58 ) ;
#238 = VERTEX_POINT ( 'NONE', #57 ) ;
#239 = VERTEX_POINT ( 'NONE', #56 ) ;
#240 = VERTEX_POINT ( 'NONE', #55 ) ;
#241 = VERTEX_POINT ( 'NONE', #54 ) ;
#242 = VERTEX_POINT ( 'NONE', #53 ) ;
#243 = VERTEX_POINT ( 'NONE', #52 ) ;
#244 = VERTEX_POINT ( 'NONE', #51 ) ;
#245 = ORIENTED_EDGE ( 'NONE', *, *, #30, .T. ) ;
#246 = ORIENTED_EDGE ( 'NONE', *, *, #16, .F. ) ;
#247 = ORIENTED_EDGE ( 'NONE', *, *, #33, .F. ) ;
#248 = ORIENTED_EDGE ( 'NONE', *, *, #33, .T. ) ;
#249 = ORIENTED_EDGE ( 'NONE', *, *, #15, .T. ) ;
#250 = ORIENTED_EDGE ( 'NONE', *, *, #10, .T. ) ;
#251 = ORIENTED_EDGE ( 'NONE', *, *, #32, .T. ) ;
#252 = ORIENTED_EDGE ( 'NONE', *, *, #27, .T. ) ;
#253 = ORIENTED_EDGE ( 'NONE', *, *, #24, .T. ) ;
#254 = ORIENTED_EDGE ( 'NONE', *, *, #19, .T. ) ;
#255 = ORIENTED_EDGE ( 'NONE', *, *, #25, .T. ) ;
#256 = ORIENTED_EDGE ( 'NONE', *, *, #27, .F. ) ;
#257 = ORIENTED_EDGE ( 'NONE', *, *, #11, .T. ) ;
#258 = ORIENTED_EDGE ( 'NONE', *, *, #14, .T. ) ;
#259 = ORIENTED_EDGE ( 'NONE', *, *, #26, .F. ) ;
#260 = ORIENTED_EDGE ( 'NONE', *, *, #10, .F. ) ;
#261 = ORIENTED_EDGE ( 'NONE', *, *, #24, .F. ) ;
#262 = ORIENTED_EDGE ( 'NONE', *, *, #17, .F. ) ;
#263 = ORIENTED_EDGE ( 'NONE', *, *, #29, .F. ) ;
#264 = ORIENTED_EDGE ( 'NONE', *, *, #18, .F. ) ;
#265 = ORIENTED_EDGE ( 'NONE', *, *, #31, .T. ) ;
#266 = ORIENTED_EDGE ( 'NONE', *, *, #19, .F. ) ;
#267 = ORIENTED_EDGE ( 'NONE', *, *, #18, .T. ) ;
#268 = ORIENTED_EDGE ( 'NONE', *, *, #28, .T. ) ;
#269 = ORIENTED_EDGE ( 'NONE', *, *, #32, .F. ) ;
#270 = ORIENTED_EDGE ( 'NONE', *, *, #12, .F. ) ;
#271 = ORIENTED_EDGE ( 'NONE', *, *, #14, .F. ) ;
#272 = ORIENTED_EDGE ( 'NONE', *, *, #31, .F. ) ;
#273 = ORIENTED_EDGE ( 'NONE', *, *, #28, .F. ) ;
#274 = ORIENTED_EDGE ( 'NONE', *, *, #13, .T. ) ;
#275 = ORIENTED_EDGE ( 'NONE', *, *, #16, .T. ) ;
#276 = ORIENTED_EDGE ( 'NONE', *, *, #15, .F. ) ;
#277 = SHAPE_DEFINITION_REPRESENTATION ( #2, #37 ) ;
#278 = ORGANIZATION ( 'UNSPECIFIED', 'UNSPECIFIED', '' ) ;
#279 = PERSON_AND_ORGANIZATION ( #348, #278 ) ;
#280 = PERSON_AND_ORGANIZATION ( #348, #278 ) ;
#281 = APPROVAL_PERSON_ORGANIZATION ( #280, #189, #103 ) ;
#282 = COORDINATED_UNIVERSAL_TIME_OFFSET ( 9, 0, .AHEAD. ) ;
#283 = CALENDAR_DATE ( 2012, 23, 8 ) ;
#284 = DATE_AND_TIME ( #283, #41 ) ;
#285 = APPROVAL_DATE_TIME ( #284, #189 ) ;
#286 = PERSON_AND_ORGANIZATION ( #348, #278 ) ;
#287 = COORDINATED_UNIVERSAL_TIME_OFFSET ( 9, 0, .AHEAD. ) ;
#288 = CALENDAR_DATE ( 2012, 23, 8 ) ;
#289 = DATE_AND_TIME ( #288, #39 ) ;
#290 = PERSON_AND_ORGANIZATION ( #348, #278 ) ;
#291 = APPROVAL_PERSON_ORGANIZATION ( #290, #184, #44 ) ;
#292 = COORDINATED_UNIVERSAL_TIME_OFFSET ( 9, 0, .AHEAD. ) ;
#293 = CALENDAR_DATE ( 2012, 23, 8 ) ;
#294 = DATE_AND_TIME ( #293, #42 ) ;
#295 = APPROVAL_DATE_TIME ( #294, #184 ) ;
#296 = PERSON_AND_ORGANIZATION ( #348, #278 ) ;
#297 = PERSON_AND_ORGANIZATION ( #348, #278 ) ;
#298 = PERSON_AND_ORGANIZATION ( #348, #278 ) ;
#299 = COORDINATED_UNIVERSAL_TIME_OFFSET ( 9, 0, .AHEAD. ) ;
#300 = CALENDAR_DATE ( 2012, 23, 8 ) ;
#301 = DATE_AND_TIME ( #300, #40 ) ;
#302 = PERSON_AND_ORGANIZATION ( #348, #278 ) ;
#303 = APPROVAL_PERSON_ORGANIZATION ( #302, #177, #99 ) ;
#304 = COORDINATED_UNIVERSAL_TIME_OFFSET ( 9, 0, .AHEAD. ) ;
#305 = CALENDAR_DATE ( 2012, 23, 8 ) ;
#306 = DATE_AND_TIME ( #305, #43 ) ;
#307 = APPROVAL_DATE_TIME ( #306, #177 ) ;
#308 = AXIS2_PLACEMENT_3D ( 'NONE', #131, #132, #134 ) ;
#309 = CONICAL_SURFACE ( 'NONE', #338, 10.49999999999999600, 0.6202494859828210400 ) ;
#310 = VECTOR ( 'NONE', #97, 1000.000000000000000 ) ;
#311 = AXIS2_PLACEMENT_3D ( 'NONE', #170, #157, #156 ) ;
#312 = AXIS2_PLACEMENT_3D ( 'NONE', #110, #114, #159 ) ;
#313 = AXIS2_PLACEMENT_3D ( 'NONE', #117, #112, #111 ) ;
#314 = CIRCLE ( 'NONE', #328, 2.500000000000000400 ) ;
#315 = AXIS2_PLACEMENT_3D ( 'NONE', #168, #169, #162 ) ;
#316 = AXIS2_PLACEMENT_3D ( 'NONE', #150, #152, #153 ) ;
#317 = AXIS2_PLACEMENT_3D ( 'NONE', #123, #121, #119 ) ;
#318 = VECTOR ( 'NONE', #89, 1000.000000000000000 ) ;
#319 = CIRCLE ( 'NONE', #312, 5.749999999999996400 ) ;
#320 = TOROIDAL_SURFACE ( 'NONE', #308, 4.213455261770486800, 2.500000000000000400 ) ;
#321 = AXIS2_PLACEMENT_3D ( 'NONE', #109, #108, #107 ) ;
#322 = AXIS2_PLACEMENT_3D ( 'NONE', #155, #158, #94 ) ;
#323 = VECTOR ( 'NONE', #95, 1000.000000000000000 ) ;
#324 = CIRCLE ( 'NONE', #330, 5.749999999999996400 ) ;
#325 = AXIS2_PLACEMENT_3D ( 'NONE', #144, #145, #146 ) ;
#326 = TOROIDAL_SURFACE ( 'NONE', #346, 4.213455261770486800, 2.500000000000000400 ) ;
#327 = CIRCLE ( 'NONE', #322, 5.749999999999996400 ) ;
#328 = AXIS2_PLACEMENT_3D ( 'NONE', #151, #166, #118 ) ;
#329 = AXIS2_PLACEMENT_3D ( 'NONE', #135, #136, #137 ) ;
#330 = AXIS2_PLACEMENT_3D ( 'NONE', #93, #92, #91 ) ;
#331 = CONICAL_SURFACE ( 'NONE', #313, 10.49999999999999600, 0.6202494859828210400 ) ;
#332 = CIRCLE ( 'NONE', #172, 7.250000000000000900 ) ;
#333 = VECTOR ( 'NONE', #164, 1000.000000000000000 ) ;
#334 = AXIS2_PLACEMENT_3D ( 'NONE', #128, #127, #125 ) ;
#335 = AXIS2_PLACEMENT_3D ( 'NONE', #147, #148, #149 ) ;
#336 = CIRCLE ( 'NONE', #311, 10.49999999999999600 ) ;
#337 = CIRCLE ( 'NONE', #335, 4.213455261770487700 ) ;
#338 = AXIS2_PLACEMENT_3D ( 'NONE', #138, #140, #141 ) ;
#339 = CIRCLE ( 'NONE', #315, 5.749999999999996400 ) ;
#340 = CIRCLE ( 'NONE', #334, 10.49999999999999600 ) ;
#341 = CIRCLE ( 'NONE', #316, 7.250000000000000900 ) ;
#342 = CONICAL_SURFACE ( 'NONE', #317, 7.250000000000000900, 0.1434522633036585900 ) ;
#343 = VECTOR ( 'NONE', #129, 1000.000000000000000 ) ;
#344 = CIRCLE ( 'NONE', #196, 2.500000000000000400 ) ;
#345 = AXIS2_PLACEMENT_3D ( 'NONE', #105, #101, #100 ) ;
#346 = AXIS2_PLACEMENT_3D ( 'NONE', #120, #124, #126 ) ;
#347 = UNCERTAINTY_MEASURE_WITH_UNIT (LENGTH_MEASURE( 1.000000000000000100E-005 ), #50, 'distance_accuracy_value', 'NONE');
#348 = PERSON ( 'UNSPECIFIED', 'UNSPECIFIED', 'UNSPECIFIED', ('UNSPECIFIED'), ('UNSPECIFIED'), ('UNSPECIFIED') ) ;
#349 = PRODUCT ( 'C-31-6-EP-UL', 'C-31-6-EP-UL', '', ( #133 ) ) ;
#350 = ORIENTED_EDGE ( 'NONE', *, *, #11, .F. ) ;
#351 = ORIENTED_EDGE ( 'NONE', *, *, #13, .F. ) ;
#352 = ORIENTED_EDGE ( 'NONE', *, *, #25, .F. ) ;
#353 = ORIENTED_EDGE ( 'NONE', *, *, #29, .T. ) ;
#354 = ORIENTED_EDGE ( 'NONE', *, *, #26, .T. ) ;
#355 = ORIENTED_EDGE ( 'NONE', *, *, #17, .T. ) ;
#356 = ORIENTED_EDGE ( 'NONE', *, *, #30, .F. ) ;
#357 = ORIENTED_EDGE ( 'NONE', *, *, #12, .T. ) ;
ENDSEC;
END-ISO-10303-21;
