ISO-10303-21;
HEADER;
FILE_DESCRIPTION (( 'STEP AP203' ),
    '1' );
FILE_NAME ('C-31-5-EP-UL.STEP',
    '2012-08-23T02:06:58',
    ( '11sw' ),
    ( '^LQ»¢®ïÐ' ),
    'SwSTEP 2.0',
    'SolidWorks 2011',
    '' );
FILE_SCHEMA (( 'CONFIG_CONTROL_DESIGN' ));
ENDSEC;

DATA;
#1 = AXIS2_PLACEMENT_3D ( 'NONE', #183, #182, #181 ) ;
#2 = VECTOR ( 'NONE', #190, 1000.000000000000000 ) ;
#3 = CONICAL_SURFACE ( 'NONE', #1, 12.49999999999999600, 0.3028848683749711900 ) ;
#4 = AXIS2_PLACEMENT_3D ( 'NONE', #186, #185, #184 ) ;
#5 = AXIS2_PLACEMENT_3D ( 'NONE', #212, #208, #206 ) ;
#6 = PRODUCT_RELATED_PRODUCT_CATEGORY ( 'detail', '', ( #270 ) ) ;
#7 = CC_DESIGN_SECURITY_CLASSIFICATION ( #13, ( #19 ) ) ;
#8 = CC_DESIGN_APPROVAL ( #10, ( #13 ) ) ;
#9 = VECTOR ( 'NONE', #188, 1000.000000000000000 ) ;
#10 = APPROVAL ( #195, 'UNSPECIFIED' ) ;
#11 = CC_DESIGN_DATE_AND_TIME_ASSIGNMENT ( #93, #197, ( #13 ) ) ;
#12 = CC_DESIGN_PERSON_AND_ORGANIZATION_ASSIGNMENT ( #90, #198, ( #13 ) ) ;
#13 = SECURITY_CLASSIFICATION ( '', '', #199 ) ;
#14 = CC_DESIGN_PERSON_AND_ORGANIZATION_ASSIGNMENT ( #89, #202, ( #19 ) ) ;
#15 = AXIS2_PLACEMENT_3D ( 'NONE', #180, #178, #177 ) ;
#16 = CC_DESIGN_PERSON_AND_ORGANIZATION_ASSIGNMENT ( #88, #203, ( #19 ) ) ;
#17 = CC_DESIGN_APPROVAL ( #18, ( #19 ) ) ;
#18 = APPROVAL ( #207, 'UNSPECIFIED' ) ;
#19 = PRODUCT_DEFINITION_FORMATION_WITH_SPECIFIED_SOURCE ( 'ANY', '', #270, .NOT_KNOWN. ) ;
#20 = CC_DESIGN_DATE_AND_TIME_ASSIGNMENT ( #81, #209, ( #25 ) ) ;
#21 = AXIS2_PLACEMENT_3D ( 'NONE', #201, #200, #193 ) ;
#22 = CC_DESIGN_PERSON_AND_ORGANIZATION_ASSIGNMENT ( #78, #210, ( #25 ) ) ;
#23 = CC_DESIGN_APPROVAL ( #24, ( #25 ) ) ;
#24 = APPROVAL ( #213, 'UNSPECIFIED' ) ;
#25 = PRODUCT_DEFINITION ( 'UNKNOWN', '', #19, #31 ) ;
#26 = CC_DESIGN_PERSON_AND_ORGANIZATION_ASSIGNMENT ( #71, #217, ( #270 ) ) ;
#27 = AXIS2_PLACEMENT_3D ( 'NONE', #226, #225, #224 ) ;
#28 = AXIS2_PLACEMENT_3D ( 'NONE', #176, #175, #174 ) ;
#29 = CIRCLE ( 'NONE', #28, 2.500000000000002200 ) ;
#30 = CONICAL_SURFACE ( 'NONE', #15, 8.500000000000001800, 0.1798534997924780300 ) ;
#31 = DESIGN_CONTEXT ( 'detailed design', #216, 'design' ) ;
#32 = PRODUCT_DEFINITION_SHAPE ( 'NONE', 'NONE',  #25 ) ;
#33 = EDGE_CURVE ( 'NONE', #283, #289, #254, .T. ) ;
#34 = ADVANCED_FACE ( 'NONE', ( #310 ), #308, .F. ) ;
#35 = ADVANCED_FACE ( 'NONE', ( #309 ), #265, .T. ) ;
#36 = ADVANCED_FACE ( 'NONE', ( #315 ), #122, .T. ) ;
#37 = ADVANCED_FACE ( 'NONE', ( #316 ), #231, .T. ) ;
#38 = ADVANCED_FACE ( 'NONE', ( #329 ), #317, .F. ) ;
#39 = ADVANCED_FACE ( 'NONE', ( #319, #328 ), #133, .T. ) ;
#40 = ADVANCED_FACE ( 'NONE', ( #318 ), #234, .T. ) ;
#41 = ADVANCED_FACE ( 'NONE', ( #327 ), #245, .T. ) ;
#42 =( GEOMETRIC_REPRESENTATION_CONTEXT ( 3 ) GLOBAL_UNCERTAINTY_ASSIGNED_CONTEXT ( ( #269 ) ) GLOBAL_UNIT_ASSIGNED_CONTEXT ( ( #160, #159, #167 ) ) REPRESENTATION_CONTEXT ( 'NONE', 'WORKASPACE' ) );
#43 = EDGE_CURVE ( 'NONE', #281, #286, #232, .T. ) ;
#44 = EDGE_CURVE ( 'NONE', #279, #285, #235, .T. ) ;
#45 = EDGE_CURVE ( 'NONE', #282, #284, #266, .T. ) ;
#46 = EDGE_CURVE ( 'NONE', #290, #288, #247, .T. ) ;
#47 = EDGE_CURVE ( 'NONE', #284, #282, #229, .T. ) ;
#48 = EDGE_CURVE ( 'NONE', #287, #282, #313, .T. ) ;
#49 = EDGE_CURVE ( 'NONE', #287, #280, #236, .T. ) ;
#50 = EDGE_CURVE ( 'NONE', #289, #281, #312, .T. ) ;
#51 = EDGE_CURVE ( 'NONE', #285, #283, #239, .T. ) ;
#52 = EDGE_CURVE ( 'NONE', #286, #281, #261, .T. ) ;
#53 = EDGE_CURVE ( 'NONE', #289, #283, #260, .T. ) ;
#54 = LOCAL_TIME ( 11, 6, 58.00000000000000000, #91 ) ;
#55 = LOCAL_TIME ( 11, 6, 58.00000000000000000, #84 ) ;
#56 = LOCAL_TIME ( 11, 6, 58.00000000000000000, #96 ) ;
#57 = LOCAL_TIME ( 11, 6, 58.00000000000000000, #79 ) ;
#58 = EDGE_CURVE ( 'NONE', #283, #286, #273, .T. ) ;
#59 = EDGE_CURVE ( 'NONE', #288, #286, #320, .T. ) ;
#60 = EDGE_CURVE ( 'NONE', #288, #290, #246, .T. ) ;
#61 = EDGE_CURVE ( 'NONE', #280, #287, #248, .T. ) ;
#62 = EDGE_CURVE ( 'NONE', #285, #279, #253, .T. ) ;
#63 = EDGE_CURVE ( 'NONE', #280, #284, #331, .T. ) ;
#64 = EDGE_CURVE ( 'NONE', #290, #281, #311, .T. ) ;
#65 = ADVANCED_FACE ( 'NONE', ( #332 ), #187, .T. ) ;
#66 = ADVANCED_FACE ( 'NONE', ( #272 ), #3, .T. ) ;
#67 = ADVANCED_FACE ( 'NONE', ( #314 ), #30, .T. ) ;
#68 = LOCAL_TIME ( 11, 6, 58.00000000000000000, #74 ) ;
#69 = EDGE_CURVE ( 'NONE', #279, #289, #29, .T. ) ;
#70 = ORGANIZATION ( 'UNSPECIFIED', 'UNSPECIFIED', '' ) ;
#71 = PERSON_AND_ORGANIZATION ( #271, #70 ) ;
#72 = PERSON_AND_ORGANIZATION ( #271, #70 ) ;
#73 = APPROVAL_PERSON_ORGANIZATION ( #72, #24, #211 ) ;
#74 = COORDINATED_UNIVERSAL_TIME_OFFSET ( 9, 0, .AHEAD. ) ;
#75 = CALENDAR_DATE ( 2012, 23, 8 ) ;
#76 = DATE_AND_TIME ( #75, #68 ) ;
#77 = APPROVAL_DATE_TIME ( #76, #24 ) ;
#78 = PERSON_AND_ORGANIZATION ( #271, #70 ) ;
#79 = COORDINATED_UNIVERSAL_TIME_OFFSET ( 9, 0, .AHEAD. ) ;
#80 = CALENDAR_DATE ( 2012, 23, 8 ) ;
#81 = DATE_AND_TIME ( #80, #57 ) ;
#82 = PERSON_AND_ORGANIZATION ( #271, #70 ) ;
#83 = APPROVAL_PERSON_ORGANIZATION ( #82, #18, #205 ) ;
#84 = COORDINATED_UNIVERSAL_TIME_OFFSET ( 9, 0, .AHEAD. ) ;
#85 = CALENDAR_DATE ( 2012, 23, 8 ) ;
#86 = DATE_AND_TIME ( #85, #55 ) ;
#87 = APPROVAL_DATE_TIME ( #86, #18 ) ;
#88 = PERSON_AND_ORGANIZATION ( #271, #70 ) ;
#89 = PERSON_AND_ORGANIZATION ( #271, #70 ) ;
#90 = PERSON_AND_ORGANIZATION ( #271, #70 ) ;
#91 = COORDINATED_UNIVERSAL_TIME_OFFSET ( 9, 0, .AHEAD. ) ;
#92 = CALENDAR_DATE ( 2012, 23, 8 ) ;
#93 = DATE_AND_TIME ( #92, #54 ) ;
#94 = PERSON_AND_ORGANIZATION ( #271, #70 ) ;
#95 = APPROVAL_PERSON_ORGANIZATION ( #94, #10, #194 ) ;
#96 = COORDINATED_UNIVERSAL_TIME_OFFSET ( 9, 0, .AHEAD. ) ;
#97 = CALENDAR_DATE ( 2012, 23, 8 ) ;
#98 = DATE_AND_TIME ( #97, #56 ) ;
#99 = APPROVAL_DATE_TIME ( #98, #10 ) ;
#100 = MANIFOLD_SOLID_BREP ( 'ñ]1', #297 ) ;
#101 = ADVANCED_BREP_SHAPE_REPRESENTATION ( 'C-31-5-EP-UL', ( #100, #27 ), #42 ) ;
#102 = CARTESIAN_POINT ( 'NONE',  ( 0.0000000000000000000, 0.0000000000000000000, 0.0000000000000000000 ) ) ;
#103 = DIRECTION ( 'NONE',  ( -0.0000000000000000000, 1.000000000000000000, -0.0000000000000000000 ) ) ;
#104 = CARTESIAN_POINT ( 'NONE',  ( 0.0000000000000000000, 26.19748375073886800, 6.999999999999996400 ) ) ;
#105 = DIRECTION ( 'NONE',  ( -0.0000000000000000000, 1.000000000000000000, -0.0000000000000000000 ) ) ;
#106 = DIRECTION ( 'NONE',  ( 0.0000000000000000000, 0.0000000000000000000, 1.000000000000000000 ) ) ;
#107 = DIRECTION ( 'NONE',  ( 0.0000000000000000000, 0.0000000000000000000, 1.000000000000000000 ) ) ;
#108 = DIRECTION ( 'NONE',  ( -0.0000000000000000000, 1.000000000000000000, -0.0000000000000000000 ) ) ;
#109 = CARTESIAN_POINT ( 'NONE',  ( 0.0000000000000000000, 21.99999999999999600, 0.0000000000000000000 ) ) ;
#110 = CARTESIAN_POINT ( 'NONE',  ( 0.0000000000000000000, 0.0000000000000000000, 0.0000000000000000000 ) ) ;
#111 = DIRECTION ( 'NONE',  ( 0.0000000000000000000, 0.0000000000000000000, 1.000000000000000000 ) ) ;
#112 = CARTESIAN_POINT ( 'NONE',  ( 0.0000000000000000000, -6.245687482839872300, 0.0000000000000000000 ) ) ;
#113 = DIRECTION ( 'NONE',  ( -0.0000000000000000000, 1.000000000000000000, -0.0000000000000000000 ) ) ;
#114 = DIRECTION ( 'NONE',  ( 0.0000000000000000000, 0.0000000000000000000, 1.000000000000000000 ) ) ;
#115 = CARTESIAN_POINT ( 'NONE',  ( 0.0000000000000000000, 26.19748375073886800, 0.0000000000000000000 ) ) ;
#116 = CARTESIAN_POINT ( 'NONE',  ( 0.0000000000000000000, -5.500000000000003600, 8.162022716524962400 ) ) ;
#117 = DIRECTION ( 'NONE',  ( -0.0000000000000000000, 1.000000000000000000, -0.0000000000000000000 ) ) ;
#118 = DIRECTION ( 'NONE',  ( 0.0000000000000000000, 0.0000000000000000000, 1.000000000000000000 ) ) ;
#119 = CARTESIAN_POINT ( 'NONE',  ( 0.0000000000000000000, 0.0000000000000000000, 0.0000000000000000000 ) ) ;
#120 = DIRECTION ( 'NONE',  ( -0.0000000000000000000, 1.000000000000000000, -0.0000000000000000000 ) ) ;
#121 = DIRECTION ( 'NONE',  ( 0.0000000000000000000, 0.0000000000000000000, 1.000000000000000000 ) ) ;
#122 = PLANE ( 'NONE',  #244 ) ;
#123 = CARTESIAN_POINT ( 'NONE',  ( 0.0000000000000000000, -8.000000000000003600, 8.162022716524962400 ) ) ;
#124 = DIRECTION ( 'NONE',  ( 0.0000000000000000000, -1.000000000000000000, 0.0000000000000000000 ) ) ;
#125 = DIRECTION ( 'NONE',  ( 0.0000000000000000000, -0.0000000000000000000, -1.000000000000000000 ) ) ;
#126 = CARTESIAN_POINT ( 'NONE',  ( 0.0000000000000000000, -5.500000000000003600, 0.0000000000000000000 ) ) ;
#127 = DIRECTION ( 'NONE',  ( -0.0000000000000000000, 1.000000000000000000, -0.0000000000000000000 ) ) ;
#128 = DIRECTION ( 'NONE',  ( 0.0000000000000000000, 0.0000000000000000000, 1.000000000000000000 ) ) ;
#129 = CARTESIAN_POINT ( 'NONE',  ( 0.0000000000000000000, 26.19748375073886800, 0.0000000000000000000 ) ) ;
#130 = DIRECTION ( 'NONE',  ( -0.0000000000000000000, 1.000000000000000000, -0.0000000000000000000 ) ) ;
#131 = CARTESIAN_POINT ( 'NONE',  ( 0.0000000000000000000, 0.0000000000000000000, 0.0000000000000000000 ) ) ;
#132 = DIRECTION ( 'NONE',  ( 0.0000000000000000000, 0.0000000000000000000, 1.000000000000000000 ) ) ;
#133 = PLANE ( 'NONE',  #267 ) ;
#134 = CARTESIAN_POINT ( 'NONE',  ( 0.0000000000000000000, 21.99999999999999600, 6.999999999999997300 ) ) ;
#135 = DIRECTION ( 'NONE',  ( -0.0000000000000000000, 1.000000000000000000, 0.0000000000000000000 ) ) ;
#136 = DIRECTION ( 'NONE',  ( 0.0000000000000000000, 0.0000000000000000000, 1.000000000000000000 ) ) ;
#137 = CARTESIAN_POINT ( 'NONE',  ( 0.0000000000000000000, -5.500000000000003600, 0.0000000000000000000 ) ) ;
#138 = DIRECTION ( 'NONE',  ( -0.0000000000000000000, 1.000000000000000000, -0.0000000000000000000 ) ) ;
#139 = DIRECTION ( 'NONE',  ( 0.0000000000000000000, 0.0000000000000000000, 1.000000000000000000 ) ) ;
#140 = CARTESIAN_POINT ( 'NONE',  ( 0.0000000000000000000, 21.99999999999999600, 0.0000000000000000000 ) ) ;
#141 = DIRECTION ( 'NONE',  ( 0.0000000000000000000, 0.0000000000000000000, 1.000000000000000000 ) ) ;
#142 = DIRECTION ( 'NONE',  ( -0.0000000000000000000, 1.000000000000000000, -0.0000000000000000000 ) ) ;
#143 = CARTESIAN_POINT ( 'NONE',  ( 0.0000000000000000000, 21.99999999999999600, 0.0000000000000000000 ) ) ;
#144 = CARTESIAN_POINT ( 'NONE',  ( 0.0000000000000000000, 21.99999999999999600, 0.0000000000000000000 ) ) ;
#145 = DIRECTION ( 'NONE',  ( 0.0000000000000000000, 0.0000000000000000000, 1.000000000000000000 ) ) ;
#146 = DIRECTION ( 'NONE',  ( -0.0000000000000000000, 1.000000000000000000, -0.0000000000000000000 ) ) ;
#147 = DIRECTION ( 'NONE',  ( -0.0000000000000000000, 1.000000000000000000, -0.0000000000000000000 ) ) ;
#148 = DIRECTION ( 'NONE',  ( 0.0000000000000000000, 0.0000000000000000000, -1.000000000000000000 ) ) ;
#149 = DIRECTION ( 'NONE',  ( -0.0000000000000000000, 1.000000000000000000, -0.0000000000000000000 ) ) ;
#150 = CARTESIAN_POINT ( 'NONE',  ( 0.0000000000000000000, -8.000000000000007100, 0.0000000000000000000 ) ) ;
#151 = DIRECTION ( 'NONE',  ( -0.0000000000000000000, 1.000000000000000000, -0.0000000000000000000 ) ) ;
#152 = DIRECTION ( 'NONE',  ( 0.0000000000000000000, 0.0000000000000000000, 1.000000000000000000 ) ) ;
#153 = DIRECTION ( 'NONE',  ( 0.0000000000000000000, 0.0000000000000000000, 1.000000000000000000 ) ) ;
#154 = DIRECTION ( 'NONE',  ( 0.0000000000000000000, -1.000000000000000000, 0.0000000000000000000 ) ) ;
#155 = DIRECTION ( 'NONE',  ( -1.000000000000000000, 0.0000000000000000000, 0.0000000000000000000 ) ) ;
#156 = CARTESIAN_POINT ( 'NONE',  ( 1.530808498934191100E-015, 0.0000000000000000000, -12.49999999999999600 ) ) ;
#157 = DIRECTION ( 'NONE',  ( 0.0000000000000000000, 0.0000000000000000000, 1.000000000000000000 ) ) ;
#158 = DIRECTION ( 'NONE',  ( 3.652815156096356900E-017, 0.9544799780350298200, -0.2982749931359465800 ) ) ;
#159 =( NAMED_UNIT ( * ) PLANE_ANGLE_UNIT ( ) SI_UNIT ( $, .RADIAN. ) );
#160 =( LENGTH_UNIT ( ) NAMED_UNIT ( * ) SI_UNIT ( .MILLI., .METRE. ) );
#161 = CARTESIAN_POINT ( 'NONE',  ( 0.0000000000000000000, 21.99999999999999600, -8.500000000000001800 ) ) ;
#162 = CARTESIAN_POINT ( 'NONE',  ( 1.411296605428963900E-015, -6.245687482839872300, -10.54822266161253800 ) ) ;
#163 = CARTESIAN_POINT ( 'NONE',  ( 1.285879139104720600E-015, 21.99999999999999600, 8.500000000000001800 ) ) ;
#164 = CARTESIAN_POINT ( 'NONE',  ( 0.0000000000000000000, -6.245687482839872300, 10.54822266161253800 ) ) ;
#165 = CARTESIAN_POINT ( 'NONE',  ( 0.0000000000000000000, 0.0000000000000000000, 6.999999999999995600 ) ) ;
#166 = CARTESIAN_POINT ( 'NONE',  ( 0.0000000000000000000, 21.99999999999999600, 6.999999999999997300 ) ) ;
#167 =( NAMED_UNIT ( * ) SI_UNIT ( $, .STERADIAN. ) SOLID_ANGLE_UNIT ( ) );
#168 = CARTESIAN_POINT ( 'NONE',  ( 0.0000000000000000000, 0.0000000000000000000, -12.49999999999999600 ) ) ;
#169 = CARTESIAN_POINT ( 'NONE',  ( 8.572527594031468300E-016, 0.0000000000000000000, -6.999999999999995600 ) ) ;
#170 = CARTESIAN_POINT ( 'NONE',  ( 1.145672105679882500E-015, -8.000000000000007100, -8.162022716524962400 ) ) ;
#171 = CARTESIAN_POINT ( 'NONE',  ( 1.530808498934190900E-015, 0.0000000000000000000, 12.49999999999999600 ) ) ;
#172 = CARTESIAN_POINT ( 'NONE',  ( 0.0000000000000000000, -8.000000000000007100, 8.162022716524962400 ) ) ;
#173 = CARTESIAN_POINT ( 'NONE',  ( 8.572527594031470200E-016, 21.99999999999999600, -6.999999999999998200 ) ) ;
#174 = DIRECTION ( 'NONE',  ( 1.224646799147353500E-016, 0.0000000000000000000, -1.000000000000000000 ) ) ;
#175 = DIRECTION ( 'NONE',  ( 1.000000000000000000, 0.0000000000000000000, 1.224646799147353200E-016 ) ) ;
#176 = CARTESIAN_POINT ( 'NONE',  ( 9.995594994360280600E-016, -5.500000000000003600, -8.162022716524962400 ) ) ;
#177 = DIRECTION ( 'NONE',  ( 0.0000000000000000000, 0.0000000000000000000, -1.000000000000000000 ) ) ;
#178 = DIRECTION ( 'NONE',  ( 0.0000000000000000000, -1.000000000000000000, 0.0000000000000000000 ) ) ;
#179 = DIRECTION ( 'NONE',  ( 2.190714793056808200E-017, -0.9838699100999075400, 0.1788854381999829800 ) ) ;
#180 = CARTESIAN_POINT ( 'NONE',  ( 0.0000000000000000000, 21.99999999999999600, 0.0000000000000000000 ) ) ;
#181 = DIRECTION ( 'NONE',  ( 0.0000000000000000000, 0.0000000000000000000, 1.000000000000000000 ) ) ;
#182 = DIRECTION ( 'NONE',  ( -0.0000000000000000000, 1.000000000000000000, -0.0000000000000000000 ) ) ;
#183 = CARTESIAN_POINT ( 'NONE',  ( 0.0000000000000000000, 0.0000000000000000000, 0.0000000000000000000 ) ) ;
#184 = DIRECTION ( 'NONE',  ( 0.0000000000000000000, 0.0000000000000000000, 1.000000000000000000 ) ) ;
#185 = DIRECTION ( 'NONE',  ( -0.0000000000000000000, 1.000000000000000000, 0.0000000000000000000 ) ) ;
#186 = CARTESIAN_POINT ( 'NONE',  ( 0.0000000000000000000, -4.286263797015733600E-016, 0.0000000000000000000 ) ) ;
#187 = PLANE ( 'NONE',  #4 ) ;
#188 = DIRECTION ( 'NONE',  ( 0.0000000000000000000, -0.9838699100999075400, -0.1788854381999829800 ) ) ;
#189 = CARTESIAN_POINT ( 'NONE',  ( 0.0000000000000000000, 21.99999999999999600, -8.500000000000001800 ) ) ;
#190 = DIRECTION ( 'NONE',  ( -0.0000000000000000000, 1.000000000000000000, -0.0000000000000000000 ) ) ;
#191 = CARTESIAN_POINT ( 'NONE',  ( 8.572527594031468300E-016, 26.19748375073886800, -6.999999999999996400 ) ) ;
#192 = CARTESIAN_POINT ( 'NONE',  ( 0.0000000000000000000, -6.245687482839872300, 0.0000000000000000000 ) ) ;
#193 = DIRECTION ( 'NONE',  ( 0.0000000000000000000, 0.0000000000000000000, 1.000000000000000000 ) ) ;
#194 = APPROVAL_ROLE ( '' ) ;
#195 = APPROVAL_STATUS ( 'not_yet_approved' ) ;
#196 = CARTESIAN_POINT ( 'NONE',  ( 1.040949779275250300E-015, 21.99999999999999600, 8.500000000000001800 ) ) ;
#197 = DATE_TIME_ROLE ( 'classification_date' ) ;
#198 = PERSON_AND_ORGANIZATION_ROLE ( 'classification_officer' ) ;
#199 = SECURITY_CLASSIFICATION_LEVEL ( 'unclassified' ) ;
#200 = DIRECTION ( 'NONE',  ( -0.0000000000000000000, 1.000000000000000000, -0.0000000000000000000 ) ) ;
#201 = CARTESIAN_POINT ( 'NONE',  ( 0.0000000000000000000, -8.000000000000007100, 0.0000000000000000000 ) ) ;
#202 = PERSON_AND_ORGANIZATION_ROLE ( 'design_supplier' ) ;
#203 = PERSON_AND_ORGANIZATION_ROLE ( 'creator' ) ;
#204 = DIRECTION ( 'NONE',  ( 0.0000000000000000000, 0.0000000000000000000, 1.000000000000000000 ) ) ;
#205 = APPROVAL_ROLE ( '' ) ;
#206 = DIRECTION ( 'NONE',  ( 0.0000000000000000000, 0.0000000000000000000, 1.000000000000000000 ) ) ;
#207 = APPROVAL_STATUS ( 'not_yet_approved' ) ;
#208 = DIRECTION ( 'NONE',  ( -0.0000000000000000000, 1.000000000000000000, -0.0000000000000000000 ) ) ;
#209 = DATE_TIME_ROLE ( 'creation_date' ) ;
#210 = PERSON_AND_ORGANIZATION_ROLE ( 'creator' ) ;
#211 = APPROVAL_ROLE ( '' ) ;
#212 = CARTESIAN_POINT ( 'NONE',  ( 0.0000000000000000000, 0.0000000000000000000, 0.0000000000000000000 ) ) ;
#213 = APPROVAL_STATUS ( 'not_yet_approved' ) ;
#214 = CARTESIAN_POINT ( 'NONE',  ( 0.0000000000000000000, 0.0000000000000000000, 12.49999999999999600 ) ) ;
#215 = APPLICATION_PROTOCOL_DEFINITION ( 'international standard', 'config_control_design', 1994, #216 ) ;
#216 = APPLICATION_CONTEXT ( 'configuration controlled 3d designs of mechanical parts and assemblies' ) ;
#217 = PERSON_AND_ORGANIZATION_ROLE ( 'design_owner' ) ;
#218 = MECHANICAL_CONTEXT ( 'NONE', #220, 'mechanical' ) ;
#219 = APPLICATION_PROTOCOL_DEFINITION ( 'international standard', 'config_control_design', 1994, #220 ) ;
#220 = APPLICATION_CONTEXT ( 'configuration controlled 3d designs of mechanical parts and assemblies' ) ;
#221 = DIRECTION ( 'NONE',  ( 0.0000000000000000000, 0.0000000000000000000, 1.000000000000000000 ) ) ;
#222 = DIRECTION ( 'NONE',  ( 0.0000000000000000000, 0.9544799780350298200, 0.2982749931359465800 ) ) ;
#223 = CARTESIAN_POINT ( 'NONE',  ( 0.0000000000000000000, 21.99999999999999600, 0.0000000000000000000 ) ) ;
#224 = DIRECTION ( 'NONE',  ( 1.000000000000000000, 0.0000000000000000000, 0.0000000000000000000 ) ) ;
#225 = DIRECTION ( 'NONE',  ( 0.0000000000000000000, 0.0000000000000000000, 1.000000000000000000 ) ) ;
#226 = CARTESIAN_POINT ( 'NONE',  ( 0.0000000000000000000, 0.0000000000000000000, 0.0000000000000000000 ) ) ;
#227 = DIRECTION ( 'NONE',  ( -0.0000000000000000000, 1.000000000000000000, -0.0000000000000000000 ) ) ;
#228 = DIRECTION ( 'NONE',  ( -0.0000000000000000000, 1.000000000000000000, -0.0000000000000000000 ) ) ;
#229 = CIRCLE ( 'NONE', #255, 6.999999999999997300 ) ;
#230 = AXIS2_PLACEMENT_3D ( 'NONE', #102, #105, #106 ) ;
#231 = TOROIDAL_SURFACE ( 'NONE', #264, 8.162022716524962400, 2.500000000000002200 ) ;
#232 = CIRCLE ( 'NONE', #256, 12.49999999999999600 ) ;
#233 = AXIS2_PLACEMENT_3D ( 'NONE', #137, #138, #139 ) ;
#234 = TOROIDAL_SURFACE ( 'NONE', #233, 8.162022716524962400, 2.500000000000002200 ) ;
#235 = CIRCLE ( 'NONE', #251, 8.162022716524962400 ) ;
#236 = CIRCLE ( 'NONE', #230, 6.999999999999995600 ) ;
#237 = VECTOR ( 'NONE', #179, 1000.000000000000000 ) ;
#238 = AXIS2_PLACEMENT_3D ( 'NONE', #144, #147, #153 ) ;
#239 = CIRCLE ( 'NONE', #263, 2.500000000000002200 ) ;
#240 = AXIS2_PLACEMENT_3D ( 'NONE', #129, #130, #132 ) ;
#241 = AXIS2_PLACEMENT_3D ( 'NONE', #223, #228, #221 ) ;
#242 = AXIS2_PLACEMENT_3D ( 'NONE', #192, #227, #204 ) ;
#243 = AXIS2_PLACEMENT_3D ( 'NONE', #119, #120, #121 ) ;
#244 = AXIS2_PLACEMENT_3D ( 'NONE', #123, #124, #125 ) ;
#245 = CONICAL_SURFACE ( 'NONE', #258, 8.500000000000001800, 0.1798534997924780300 ) ;
#246 = CIRCLE ( 'NONE', #241, 8.500000000000001800 ) ;
#247 = CIRCLE ( 'NONE', #238, 8.500000000000001800 ) ;
#248 = CIRCLE ( 'NONE', #5, 6.999999999999995600 ) ;
#249 = VECTOR ( 'NONE', #222, 1000.000000000000200 ) ;
#250 = AXIS2_PLACEMENT_3D ( 'NONE', #115, #117, #118 ) ;
#251 = AXIS2_PLACEMENT_3D ( 'NONE', #150, #149, #152 ) ;
#252 = VECTOR ( 'NONE', #158, 1000.000000000000200 ) ;
#253 = CIRCLE ( 'NONE', #21, 8.162022716524962400 ) ;
#254 = CIRCLE ( 'NONE', #259, 10.54822266161253800 ) ;
#255 = AXIS2_PLACEMENT_3D ( 'NONE', #109, #108, #107 ) ;
#256 = AXIS2_PLACEMENT_3D ( 'NONE', #131, #146, #141 ) ;
#257 = AXIS2_PLACEMENT_3D ( 'NONE', #110, #151, #157 ) ;
#258 = AXIS2_PLACEMENT_3D ( 'NONE', #140, #154, #148 ) ;
#259 = AXIS2_PLACEMENT_3D ( 'NONE', #112, #113, #114 ) ;
#260 = CIRCLE ( 'NONE', #242, 10.54822266161253800 ) ;
#261 = CIRCLE ( 'NONE', #257, 12.49999999999999600 ) ;
#262 = AXIS2_PLACEMENT_3D ( 'NONE', #143, #142, #145 ) ;
#263 = AXIS2_PLACEMENT_3D ( 'NONE', #116, #155, #111 ) ;
#264 = AXIS2_PLACEMENT_3D ( 'NONE', #126, #127, #128 ) ;
#265 = CONICAL_SURFACE ( 'NONE', #243, 12.49999999999999600, 0.3028848683749711900 ) ;
#266 = CIRCLE ( 'NONE', #262, 6.999999999999997300 ) ;
#267 = AXIS2_PLACEMENT_3D ( 'NONE', #134, #135, #136 ) ;
#268 = VECTOR ( 'NONE', #103, 1000.000000000000000 ) ;
#269 = UNCERTAINTY_MEASURE_WITH_UNIT (LENGTH_MEASURE( 1.000000000000000100E-005 ), #160, 'distance_accuracy_value', 'NONE');
#270 = PRODUCT ( 'C-31-5-EP-UL', 'C-31-5-EP-UL', '', ( #218 ) ) ;
#271 = PERSON ( 'UNSPECIFIED', 'UNSPECIFIED', 'UNSPECIFIED', ('UNSPECIFIED'), ('UNSPECIFIED'), ('UNSPECIFIED') ) ;
#272 = FACE_OUTER_BOUND ( 'NONE', #299, .T. ) ;
#273 = LINE ( 'NONE', #214, #249 ) ;
#274 = ORIENTED_EDGE ( 'NONE', *, *, #60, .F. ) ;
#275 = ORIENTED_EDGE ( 'NONE', *, *, #61, .F. ) ;
#276 = ORIENTED_EDGE ( 'NONE', *, *, #59, .T. ) ;
#277 = ORIENTED_EDGE ( 'NONE', *, *, #64, .F. ) ;
#278 = ORIENTED_EDGE ( 'NONE', *, *, #52, .T. ) ;
#279 = VERTEX_POINT ( 'NONE', #170 ) ;
#280 = VERTEX_POINT ( 'NONE', #169 ) ;
#281 = VERTEX_POINT ( 'NONE', #168 ) ;
#282 = VERTEX_POINT ( 'NONE', #166 ) ;
#283 = VERTEX_POINT ( 'NONE', #164 ) ;
#284 = VERTEX_POINT ( 'NONE', #173 ) ;
#285 = VERTEX_POINT ( 'NONE', #172 ) ;
#286 = VERTEX_POINT ( 'NONE', #171 ) ;
#287 = VERTEX_POINT ( 'NONE', #165 ) ;
#288 = VERTEX_POINT ( 'NONE', #163 ) ;
#289 = VERTEX_POINT ( 'NONE', #162 ) ;
#290 = VERTEX_POINT ( 'NONE', #161 ) ;
#291 = ORIENTED_EDGE ( 'NONE', *, *, #51, .F. ) ;
#292 = ORIENTED_EDGE ( 'NONE', *, *, #33, .F. ) ;
#293 = ORIENTED_EDGE ( 'NONE', *, *, #62, .T. ) ;
#294 = ORIENTED_EDGE ( 'NONE', *, *, #69, .T. ) ;
#295 = EDGE_LOOP ( 'NONE', ( #322, #352 ) ) ;
#296 = EDGE_LOOP ( 'NONE', ( #324, #321 ) ) ;
#297 = CLOSED_SHELL ( 'NONE', ( #40, #35, #41, #38, #34, #39, #67, #66, #37, #36, #65 ) ) ;
#298 = EDGE_LOOP ( 'NONE', ( #334, #344, #340, #342 ) ) ;
#299 = EDGE_LOOP ( 'NONE', ( #349, #355, #347, #323 ) ) ;
#300 = EDGE_LOOP ( 'NONE', ( #356, #348 ) ) ;
#301 = EDGE_LOOP ( 'NONE', ( #353, #351, #354, #346 ) ) ;
#302 = EDGE_LOOP ( 'NONE', ( #275, #335, #339, #336 ) ) ;
#303 = EDGE_LOOP ( 'NONE', ( #345, #350 ) ) ;
#304 = EDGE_LOOP ( 'NONE', ( #337, #338, #341, #343 ) ) ;
#305 = EDGE_LOOP ( 'NONE', ( #274, #276, #278, #277 ) ) ;
#306 = EDGE_LOOP ( 'NONE', ( #330, #333, #326, #325 ) ) ;
#307 = EDGE_LOOP ( 'NONE', ( #293, #294, #292, #291 ) ) ;
#308 = CYLINDRICAL_SURFACE ( 'NONE', #250, 6.999999999999996400 ) ;
#309 = FACE_OUTER_BOUND ( 'NONE', #306, .T. ) ;
#310 = FACE_OUTER_BOUND ( 'NONE', #304, .T. ) ;
#311 = LINE ( 'NONE', #189, #9 ) ;
#312 = LINE ( 'NONE', #156, #252 ) ;
#313 = LINE ( 'NONE', #104, #268 ) ;
#314 = FACE_OUTER_BOUND ( 'NONE', #301, .T. ) ;
#315 = FACE_OUTER_BOUND ( 'NONE', #296, .T. ) ;
#316 = FACE_OUTER_BOUND ( 'NONE', #298, .T. ) ;
#317 = CYLINDRICAL_SURFACE ( 'NONE', #240, 6.999999999999996400 ) ;
#318 = FACE_OUTER_BOUND ( 'NONE', #307, .T. ) ;
#319 = FACE_OUTER_BOUND ( 'NONE', #300, .T. ) ;
#320 = LINE ( 'NONE', #196, #237 ) ;
#321 = ORIENTED_EDGE ( 'NONE', *, *, #44, .F. ) ;
#322 = ORIENTED_EDGE ( 'NONE', *, *, #49, .T. ) ;
#323 = ORIENTED_EDGE ( 'NONE', *, *, #43, .F. ) ;
#324 = ORIENTED_EDGE ( 'NONE', *, *, #62, .F. ) ;
#325 = ORIENTED_EDGE ( 'NONE', *, *, #58, .F. ) ;
#326 = ORIENTED_EDGE ( 'NONE', *, *, #52, .F. ) ;
#327 = FACE_OUTER_BOUND ( 'NONE', #305, .T. ) ;
#328 = FACE_BOUND ( 'NONE', #303, .T. ) ;
#329 = FACE_OUTER_BOUND ( 'NONE', #302, .T. ) ;
#330 = ORIENTED_EDGE ( 'NONE', *, *, #33, .T. ) ;
#331 = LINE ( 'NONE', #191, #2 ) ;
#332 = FACE_OUTER_BOUND ( 'NONE', #295, .T. ) ;
#333 = ORIENTED_EDGE ( 'NONE', *, *, #50, .T. ) ;
#334 = ORIENTED_EDGE ( 'NONE', *, *, #69, .F. ) ;
#335 = ORIENTED_EDGE ( 'NONE', *, *, #63, .T. ) ;
#336 = ORIENTED_EDGE ( 'NONE', *, *, #48, .F. ) ;
#337 = ORIENTED_EDGE ( 'NONE', *, *, #63, .F. ) ;
#338 = ORIENTED_EDGE ( 'NONE', *, *, #49, .F. ) ;
#339 = ORIENTED_EDGE ( 'NONE', *, *, #47, .T. ) ;
#340 = ORIENTED_EDGE ( 'NONE', *, *, #51, .T. ) ;
#341 = ORIENTED_EDGE ( 'NONE', *, *, #48, .T. ) ;
#342 = ORIENTED_EDGE ( 'NONE', *, *, #53, .F. ) ;
#343 = ORIENTED_EDGE ( 'NONE', *, *, #45, .T. ) ;
#344 = ORIENTED_EDGE ( 'NONE', *, *, #44, .T. ) ;
#345 = ORIENTED_EDGE ( 'NONE', *, *, #45, .F. ) ;
#346 = ORIENTED_EDGE ( 'NONE', *, *, #43, .T. ) ;
#347 = ORIENTED_EDGE ( 'NONE', *, *, #58, .T. ) ;
#348 = ORIENTED_EDGE ( 'NONE', *, *, #60, .T. ) ;
#349 = ORIENTED_EDGE ( 'NONE', *, *, #50, .F. ) ;
#350 = ORIENTED_EDGE ( 'NONE', *, *, #47, .F. ) ;
#351 = ORIENTED_EDGE ( 'NONE', *, *, #46, .F. ) ;
#352 = ORIENTED_EDGE ( 'NONE', *, *, #61, .T. ) ;
#353 = ORIENTED_EDGE ( 'NONE', *, *, #59, .F. ) ;
#354 = ORIENTED_EDGE ( 'NONE', *, *, #64, .T. ) ;
#355 = ORIENTED_EDGE ( 'NONE', *, *, #53, .T. ) ;
#356 = ORIENTED_EDGE ( 'NONE', *, *, #46, .T. ) ;
#357 = SHAPE_DEFINITION_REPRESENTATION ( #32, #101 ) ;
ENDSEC;
END-ISO-10303-21;
