ISO-10303-21;
HEADER;
FILE_DESCRIPTION (( 'STEP AP203' ),
    '1' );
FILE_NAME ('C-31-4-EP-UL.STEP',
    '2012-08-23T02:04:50',
    ( '11sw' ),
    ( '^LQ»¢®ïÐ' ),
    'SwSTEP 2.0',
    'SolidWorks 2011',
    '' );
FILE_SCHEMA (( 'CONFIG_CONTROL_DESIGN' ));
ENDSEC;

DATA;
#1 = CONICAL_SURFACE ( 'NONE', #50, 10.75000000000000000, 0.1616213551830128800 ) ;
#2 = CIRCLE ( 'NONE', #24, 9.381802330237617200 ) ;
#3 = AXIS2_PLACEMENT_3D ( 'NONE', #152, #151, #150 ) ;
#4 = AXIS2_PLACEMENT_3D ( 'NONE', #93, #162, #199 ) ;
#5 = CIRCLE ( 'NONE', #25, 2.500000000000004000 ) ;
#6 = CONICAL_SURFACE ( 'NONE', #4, 10.75000000000000000, 0.1616213551830128800 ) ;
#7 = CIRCLE ( 'NONE', #34, 8.499999999999996400 ) ;
#8 = CONICAL_SURFACE ( 'NONE', #29, 14.49999999999999600, 0.2872814533971338500 ) ;
#9 = AXIS2_PLACEMENT_3D ( 'NONE', #208, #203, #202 ) ;
#10 = AXIS2_PLACEMENT_3D ( 'NONE', #139, #138, #136 ) ;
#11 = AXIS2_PLACEMENT_3D ( 'NONE', #145, #144, #143 ) ;
#12 = AXIS2_PLACEMENT_3D ( 'NONE', #195, #194, #191 ) ;
#13 = CIRCLE ( 'NONE', #9, 9.381802330237617200 ) ;
#14 = VECTOR ( 'NONE', #165, 1000.000000000000100 ) ;
#15 = AXIS2_PLACEMENT_3D ( 'NONE', #175, #174, #172 ) ;
#16 = AXIS2_PLACEMENT_3D ( 'NONE', #130, #129, #125 ) ;
#17 = CIRCLE ( 'NONE', #46, 14.49999999999999600 ) ;
#18 = TOROIDAL_SURFACE ( 'NONE', #45, 9.381802330237619000, 2.500000000000003100 ) ;
#19 = VECTOR ( 'NONE', #189, 1000.000000000000100 ) ;
#20 = AXIS2_PLACEMENT_3D ( 'NONE', #211, #196, #212 ) ;
#21 = AXIS2_PLACEMENT_3D ( 'NONE', #204, #214, #215 ) ;
#22 = AXIS2_PLACEMENT_3D ( 'NONE', #183, #182, #181 ) ;
#23 = CIRCLE ( 'NONE', #28, 8.499999999999996400 ) ;
#24 = AXIS2_PLACEMENT_3D ( 'NONE', #128, #127, #126 ) ;
#25 = AXIS2_PLACEMENT_3D ( 'NONE', #124, #123, #122 ) ;
#26 = CIRCLE ( 'NONE', #16, 10.75000000000000000 ) ;
#27 = CIRCLE ( 'NONE', #32, 8.499999999999996400 ) ;
#28 = AXIS2_PLACEMENT_3D ( 'NONE', #148, #147, #146 ) ;
#29 = AXIS2_PLACEMENT_3D ( 'NONE', #108, #103, #206 ) ;
#30 = TOROIDAL_SURFACE ( 'NONE', #22, 9.381802330237619000, 2.500000000000003100 ) ;
#31 = AXIS2_PLACEMENT_3D ( 'NONE', #179, #178, #177 ) ;
#32 = AXIS2_PLACEMENT_3D ( 'NONE', #157, #154, #153 ) ;
#33 = CIRCLE ( 'NONE', #40, 11.77934660038487300 ) ;
#34 = AXIS2_PLACEMENT_3D ( 'NONE', #156, #142, #137 ) ;
#35 = CIRCLE ( 'NONE', #3, 8.499999999999996400 ) ;
#36 = CIRCLE ( 'NONE', #38, 2.500000000000004000 ) ;
#37 = AXIS2_PLACEMENT_3D ( 'NONE', #163, #161, #160 ) ;
#38 = AXIS2_PLACEMENT_3D ( 'NONE', #201, #198, #197 ) ;
#39 = VECTOR ( 'NONE', #113, 1000.000000000000000 ) ;
#40 = AXIS2_PLACEMENT_3D ( 'NONE', #134, #133, #131 ) ;
#41 = VECTOR ( 'NONE', #173, 1000.000000000000000 ) ;
#42 = CIRCLE ( 'NONE', #10, 14.49999999999999600 ) ;
#43 = CIRCLE ( 'NONE', #11, 10.75000000000000000 ) ;
#44 = AXIS2_PLACEMENT_3D ( 'NONE', #169, #168, #166 ) ;
#45 = AXIS2_PLACEMENT_3D ( 'NONE', #217, #192, #193 ) ;
#46 = AXIS2_PLACEMENT_3D ( 'NONE', #187, #186, #184 ) ;
#47 = CONICAL_SURFACE ( 'NONE', #31, 14.49999999999999600, 0.2872814533971338500 ) ;
#48 = VECTOR ( 'NONE', #158, 1000.000000000000000 ) ;
#49 = CIRCLE ( 'NONE', #12, 11.77934660038487300 ) ;
#50 = AXIS2_PLACEMENT_3D ( 'NONE', #121, #120, #119 ) ;
#51 = PRODUCT_DEFINITION_SHAPE ( 'NONE', 'NONE',  #228 ) ;
#52 = DESIGN_CONTEXT ( 'detailed design', #112, 'design' ) ;
#53 = LOCAL_TIME ( 11, 4, 50.00000000000000000, #354 ) ;
#54 = LOCAL_TIME ( 11, 4, 50.00000000000000000, #349 ) ;
#55 = LOCAL_TIME ( 11, 4, 50.00000000000000000, #342 ) ;
#56 = LOCAL_TIME ( 11, 4, 50.00000000000000000, #337 ) ;
#57 = LOCAL_TIME ( 11, 4, 50.00000000000000000, #332 ) ;
#58 = EDGE_CURVE ( 'NONE', #272, #278, #13, .T. ) ;
#59 = EDGE_CURVE ( 'NONE', #278, #276, #36, .T. ) ;
#60 = EDGE_CURVE ( 'NONE', #268, #276, #49, .T. ) ;
#61 = EDGE_CURVE ( 'NONE', #276, #277, #308, .T. ) ;
#62 = EDGE_CURVE ( 'NONE', #274, #277, #17, .T. ) ;
#63 = EDGE_CURVE ( 'NONE', #269, #274, #309, .T. ) ;
#64 = EDGE_CURVE ( 'NONE', #268, #274, #310, .T. ) ;
#65 = EDGE_CURVE ( 'NONE', #273, #267, #7, .T. ) ;
#66 = EDGE_CURVE ( 'NONE', #269, #271, #26, .T. ) ;
#67 = EDGE_CURVE ( 'NONE', #271, #277, #311, .T. ) ;
#68 = ADVANCED_FACE ( 'NONE', ( #312 ), #6, .T. ) ;
#69 = ADVANCED_FACE ( 'NONE', ( #307 ), #8, .T. ) ;
#70 =( GEOMETRIC_REPRESENTATION_CONTEXT ( 3 ) GLOBAL_UNCERTAINTY_ASSIGNED_CONTEXT ( ( #239 ) ) GLOBAL_UNIT_ASSIGNED_CONTEXT ( ( #98, #97, #96 ) ) REPRESENTATION_CONTEXT ( 'NONE', 'WORKASPACE' ) );
#71 = ADVANCED_FACE ( 'NONE', ( #313 ), #314, .F. ) ;
#72 = ADVANCED_FACE ( 'NONE', ( #315 ), #316, .F. ) ;
#73 = ADVANCED_FACE ( 'NONE', ( #317 ), #18, .T. ) ;
#74 = ADVANCED_FACE ( 'NONE', ( #318 ), #30, .T. ) ;
#75 = ADVANCED_FACE ( 'NONE', ( #319 ), #47, .T. ) ;
#76 = ADVANCED_FACE ( 'NONE', ( #320, #321 ), #176, .T. ) ;
#77 = ADVANCED_FACE ( 'NONE', ( #322 ), #170, .T. ) ;
#78 = ADVANCED_FACE ( 'NONE', ( #323 ), #164, .T. ) ;
#79 = EDGE_CURVE ( 'NONE', #267, #270, #324, .T. ) ;
#80 = EDGE_CURVE ( 'NONE', #270, #275, #27, .T. ) ;
#81 = EDGE_CURVE ( 'NONE', #267, #273, #35, .T. ) ;
#82 = EDGE_CURVE ( 'NONE', #275, #270, #23, .T. ) ;
#83 = EDGE_CURVE ( 'NONE', #271, #269, #43, .T. ) ;
#84 = EDGE_CURVE ( 'NONE', #277, #274, #42, .T. ) ;
#85 = EDGE_CURVE ( 'NONE', #276, #268, #33, .T. ) ;
#86 = EDGE_CURVE ( 'NONE', #278, #272, #2, .T. ) ;
#87 = EDGE_CURVE ( 'NONE', #272, #268, #5, .T. ) ;
#88 = ADVANCED_FACE ( 'NONE', ( #326 ), #1, .T. ) ;
#89 = EDGE_CURVE ( 'NONE', #273, #275, #325, .T. ) ;
#90 = MANIFOLD_SOLID_BREP ( 'ñ]1', #306 ) ;
#91 = ADVANCED_BREP_SHAPE_REPRESENTATION ( 'C-31-4-EP-UL', ( #90, #225 ), #70 ) ;
#92 = DIRECTION ( 'NONE',  ( 1.000000000000000000, 0.0000000000000000000, 0.0000000000000000000 ) ) ;
#93 = CARTESIAN_POINT ( 'NONE',  ( 0.0000000000000000000, 22.99999999999999600, 0.0000000000000000000 ) ) ;
#94 = DIRECTION ( 'NONE',  ( 0.0000000000000000000, 0.0000000000000000000, 1.000000000000000000 ) ) ;
#95 = CARTESIAN_POINT ( 'NONE',  ( 0.0000000000000000000, 0.0000000000000000000, 0.0000000000000000000 ) ) ;
#96 =( NAMED_UNIT ( * ) SI_UNIT ( $, .STERADIAN. ) SOLID_ANGLE_UNIT ( ) );
#97 =( NAMED_UNIT ( * ) PLANE_ANGLE_UNIT ( ) SI_UNIT ( $, .RADIAN. ) );
#98 =( LENGTH_UNIT ( ) NAMED_UNIT ( * ) SI_UNIT ( .MILLI., .METRE. ) );
#99 = CARTESIAN_POINT ( 'NONE',  ( 1.295746665208363400E-015, -11.00000000000001100, -9.381802330237617200 ) ) ;
#100 = PERSON_AND_ORGANIZATION_ROLE ( 'creator' ) ;
#101 = CARTESIAN_POINT ( 'NONE',  ( 0.0000000000000000000, -3.469446951953614200E-015, -14.49999999999999600 ) ) ;
#102 = CARTESIAN_POINT ( 'NONE',  ( 1.609145884892260400E-015, -9.208365352543511400, -11.77934660038487300 ) ) ;
#103 = DIRECTION ( 'NONE',  ( -0.0000000000000000000, 1.000000000000000000, -0.0000000000000000000 ) ) ;
#104 = CARTESIAN_POINT ( 'NONE',  ( 1.040949779275249900E-015, 22.99999999999999600, -8.499999999999996400 ) ) ;
#105 = CARTESIAN_POINT ( 'NONE',  ( 1.775737858763662000E-015, -3.469446951953614200E-015, 14.49999999999999600 ) ) ;
#106 = CARTESIAN_POINT ( 'NONE',  ( 1.040949779275249900E-015, 0.0000000000000000000, -8.499999999999996400 ) ) ;
#107 = CARTESIAN_POINT ( 'NONE',  ( 0.0000000000000000000, -11.00000000000001100, 9.381802330237617200 ) ) ;
#108 = CARTESIAN_POINT ( 'NONE',  ( 0.0000000000000000000, -3.469446951953614200E-015, 0.0000000000000000000 ) ) ;
#109 = CARTESIAN_POINT ( 'NONE',  ( 0.0000000000000000000, 22.99999999999999600, -10.75000000000000000 ) ) ;
#110 = CARTESIAN_POINT ( 'NONE',  ( 0.0000000000000000000, 22.99999999999999600, 8.499999999999996400 ) ) ;
#111 = CARTESIAN_POINT ( 'NONE',  ( 1.546116583923533200E-015, 22.99999999999999600, 10.75000000000000000 ) ) ;
#112 = APPLICATION_CONTEXT ( 'configuration controlled 3d designs of mechanical parts and assemblies' ) ;
#113 = DIRECTION ( 'NONE',  ( 0.0000000000000000000, -0.9869676744811403100, -0.1609186425784466500 ) ) ;
#114 = CARTESIAN_POINT ( 'NONE',  ( 0.0000000000000000000, -9.208365352543511400, 11.77934660038487300 ) ) ;
#115 = CARTESIAN_POINT ( 'NONE',  ( 0.0000000000000000000, 0.0000000000000000000, 8.499999999999996400 ) ) ;
#116 = DIRECTION ( 'NONE',  ( -0.0000000000000000000, 1.000000000000000000, -0.0000000000000000000 ) ) ;
#117 = CARTESIAN_POINT ( 'NONE',  ( 1.040949779275249900E-015, 26.19748375073886800, -8.499999999999996400 ) ) ;
#118 = CARTESIAN_POINT ( 'NONE',  ( 0.0000000000000000000, 22.99999999999999600, -10.75000000000000000 ) ) ;
#119 = DIRECTION ( 'NONE',  ( 0.0000000000000000000, 0.0000000000000000000, -1.000000000000000000 ) ) ;
#120 = DIRECTION ( 'NONE',  ( 0.0000000000000000000, -1.000000000000000000, 0.0000000000000000000 ) ) ;
#121 = CARTESIAN_POINT ( 'NONE',  ( 0.0000000000000000000, 22.99999999999999600, 0.0000000000000000000 ) ) ;
#122 = DIRECTION ( 'NONE',  ( 0.0000000000000000000, 0.0000000000000000000, 1.000000000000000000 ) ) ;
#123 = DIRECTION ( 'NONE',  ( -1.000000000000000000, 0.0000000000000000000, 0.0000000000000000000 ) ) ;
#124 = CARTESIAN_POINT ( 'NONE',  ( 0.0000000000000000000, -8.500000000000003600, 9.381802330237619000 ) ) ;
#125 = DIRECTION ( 'NONE',  ( 0.0000000000000000000, 0.0000000000000000000, 1.000000000000000000 ) ) ;
#126 = DIRECTION ( 'NONE',  ( 0.0000000000000000000, 0.0000000000000000000, 1.000000000000000000 ) ) ;
#127 = DIRECTION ( 'NONE',  ( -0.0000000000000000000, 1.000000000000000000, -0.0000000000000000000 ) ) ;
#128 = CARTESIAN_POINT ( 'NONE',  ( 0.0000000000000000000, -11.00000000000001100, 0.0000000000000000000 ) ) ;
#129 = DIRECTION ( 'NONE',  ( -0.0000000000000000000, 1.000000000000000000, -0.0000000000000000000 ) ) ;
#130 = CARTESIAN_POINT ( 'NONE',  ( 0.0000000000000000000, 22.99999999999999600, 0.0000000000000000000 ) ) ;
#131 = DIRECTION ( 'NONE',  ( 0.0000000000000000000, 0.0000000000000000000, 1.000000000000000000 ) ) ;
#132 = PERSON_AND_ORGANIZATION_ROLE ( 'creator' ) ;
#133 = DIRECTION ( 'NONE',  ( -0.0000000000000000000, 1.000000000000000000, -0.0000000000000000000 ) ) ;
#134 = CARTESIAN_POINT ( 'NONE',  ( 0.0000000000000000000, -9.208365352543511400, 0.0000000000000000000 ) ) ;
#135 = APPROVAL_STATUS ( 'not_yet_approved' ) ;
#136 = DIRECTION ( 'NONE',  ( 0.0000000000000000000, 0.0000000000000000000, 1.000000000000000000 ) ) ;
#137 = DIRECTION ( 'NONE',  ( 0.0000000000000000000, 0.0000000000000000000, 1.000000000000000000 ) ) ;
#138 = DIRECTION ( 'NONE',  ( -0.0000000000000000000, 1.000000000000000000, -0.0000000000000000000 ) ) ;
#139 = CARTESIAN_POINT ( 'NONE',  ( 0.0000000000000000000, -3.469446951953614200E-015, 0.0000000000000000000 ) ) ;
#140 = DATE_TIME_ROLE ( 'classification_date' ) ;
#141 = PERSON_AND_ORGANIZATION_ROLE ( 'design_supplier' ) ;
#142 = DIRECTION ( 'NONE',  ( -0.0000000000000000000, 1.000000000000000000, -0.0000000000000000000 ) ) ;
#143 = DIRECTION ( 'NONE',  ( 0.0000000000000000000, 0.0000000000000000000, 1.000000000000000000 ) ) ;
#144 = DIRECTION ( 'NONE',  ( -0.0000000000000000000, 1.000000000000000000, -0.0000000000000000000 ) ) ;
#145 = CARTESIAN_POINT ( 'NONE',  ( 0.0000000000000000000, 22.99999999999999600, 0.0000000000000000000 ) ) ;
#146 = DIRECTION ( 'NONE',  ( 0.0000000000000000000, 0.0000000000000000000, 1.000000000000000000 ) ) ;
#147 = DIRECTION ( 'NONE',  ( -0.0000000000000000000, 1.000000000000000000, -0.0000000000000000000 ) ) ;
#148 = CARTESIAN_POINT ( 'NONE',  ( 0.0000000000000000000, 22.99999999999999600, 0.0000000000000000000 ) ) ;
#149 = DATE_TIME_ROLE ( 'creation_date' ) ;
#150 = DIRECTION ( 'NONE',  ( 0.0000000000000000000, 0.0000000000000000000, 1.000000000000000000 ) ) ;
#151 = DIRECTION ( 'NONE',  ( -0.0000000000000000000, 1.000000000000000000, -0.0000000000000000000 ) ) ;
#152 = CARTESIAN_POINT ( 'NONE',  ( 0.0000000000000000000, 0.0000000000000000000, 0.0000000000000000000 ) ) ;
#153 = DIRECTION ( 'NONE',  ( 0.0000000000000000000, 0.0000000000000000000, 1.000000000000000000 ) ) ;
#154 = DIRECTION ( 'NONE',  ( -0.0000000000000000000, 1.000000000000000000, -0.0000000000000000000 ) ) ;
#155 = PERSON_AND_ORGANIZATION_ROLE ( 'design_owner' ) ;
#156 = CARTESIAN_POINT ( 'NONE',  ( 0.0000000000000000000, 0.0000000000000000000, 0.0000000000000000000 ) ) ;
#157 = CARTESIAN_POINT ( 'NONE',  ( 0.0000000000000000000, 22.99999999999999600, 0.0000000000000000000 ) ) ;
#158 = DIRECTION ( 'NONE',  ( -0.0000000000000000000, 1.000000000000000000, -0.0000000000000000000 ) ) ;
#159 = CARTESIAN_POINT ( 'NONE',  ( 0.0000000000000000000, 26.19748375073886800, 8.499999999999996400 ) ) ;
#160 = DIRECTION ( 'NONE',  ( 0.0000000000000000000, 0.0000000000000000000, 1.000000000000000000 ) ) ;
#161 = DIRECTION ( 'NONE',  ( -0.0000000000000000000, 1.000000000000000000, 0.0000000000000000000 ) ) ;
#162 = DIRECTION ( 'NONE',  ( 0.0000000000000000000, -1.000000000000000000, 0.0000000000000000000 ) ) ;
#163 = CARTESIAN_POINT ( 'NONE',  ( 0.0000000000000000000, -5.204748896376249700E-016, 0.0000000000000000000 ) ) ;
#164 = PLANE ( 'NONE',  #37 ) ;
#165 = DIRECTION ( 'NONE',  ( 0.0000000000000000000, 0.9590177080589004100, 0.2833461410174020800 ) ) ;
#166 = DIRECTION ( 'NONE',  ( 0.0000000000000000000, -0.0000000000000000000, -1.000000000000000000 ) ) ;
#167 = CARTESIAN_POINT ( 'NONE',  ( 0.0000000000000000000, -3.469446951953614200E-015, 14.49999999999999600 ) ) ;
#168 = DIRECTION ( 'NONE',  ( 0.0000000000000000000, -1.000000000000000000, 0.0000000000000000000 ) ) ;
#169 = CARTESIAN_POINT ( 'NONE',  ( 0.0000000000000000000, -11.00000000000000700, 9.381802330237617200 ) ) ;
#170 = PLANE ( 'NONE',  #44 ) ;
#171 = APPLICATION_CONTEXT ( 'configuration controlled 3d designs of mechanical parts and assemblies' ) ;
#172 = DIRECTION ( 'NONE',  ( 0.0000000000000000000, 0.0000000000000000000, 1.000000000000000000 ) ) ;
#173 = DIRECTION ( 'NONE',  ( 1.970685005568316800E-017, -0.9869676744811403100, 0.1609186425784466500 ) ) ;
#174 = DIRECTION ( 'NONE',  ( -0.0000000000000000000, 1.000000000000000000, 0.0000000000000000000 ) ) ;
#175 = CARTESIAN_POINT ( 'NONE',  ( 0.0000000000000000000, 22.99999999999999600, 8.499999999999996400 ) ) ;
#176 = PLANE ( 'NONE',  #15 ) ;
#177 = DIRECTION ( 'NONE',  ( 0.0000000000000000000, 0.0000000000000000000, 1.000000000000000000 ) ) ;
#178 = DIRECTION ( 'NONE',  ( -0.0000000000000000000, 1.000000000000000000, -0.0000000000000000000 ) ) ;
#179 = CARTESIAN_POINT ( 'NONE',  ( 0.0000000000000000000, -3.469446951953614200E-015, 0.0000000000000000000 ) ) ;
#180 = CARTESIAN_POINT ( 'NONE',  ( 1.316495309083404800E-015, 22.99999999999999600, 10.75000000000000000 ) ) ;
#181 = DIRECTION ( 'NONE',  ( 0.0000000000000000000, 0.0000000000000000000, 1.000000000000000000 ) ) ;
#182 = DIRECTION ( 'NONE',  ( -0.0000000000000000000, 1.000000000000000000, -0.0000000000000000000 ) ) ;
#183 = CARTESIAN_POINT ( 'NONE',  ( 0.0000000000000000000, -8.500000000000003600, 0.0000000000000000000 ) ) ;
#184 = DIRECTION ( 'NONE',  ( 0.0000000000000000000, 0.0000000000000000000, 1.000000000000000000 ) ) ;
#185 = APPROVAL_ROLE ( '' ) ;
#186 = DIRECTION ( 'NONE',  ( -0.0000000000000000000, 1.000000000000000000, -0.0000000000000000000 ) ) ;
#187 = CARTESIAN_POINT ( 'NONE',  ( 0.0000000000000000000, -3.469446951953614200E-015, 0.0000000000000000000 ) ) ;
#188 = APPROVAL_STATUS ( 'not_yet_approved' ) ;
#189 = DIRECTION ( 'NONE',  ( 3.469989446477159700E-017, 0.9590177080589004100, -0.2833461410174020800 ) ) ;
#190 = CARTESIAN_POINT ( 'NONE',  ( 1.775737858763661600E-015, -3.469446951953614200E-015, -14.49999999999999600 ) ) ;
#191 = DIRECTION ( 'NONE',  ( 0.0000000000000000000, 0.0000000000000000000, 1.000000000000000000 ) ) ;
#192 = DIRECTION ( 'NONE',  ( -0.0000000000000000000, 1.000000000000000000, -0.0000000000000000000 ) ) ;
#193 = DIRECTION ( 'NONE',  ( 0.0000000000000000000, 0.0000000000000000000, 1.000000000000000000 ) ) ;
#194 = DIRECTION ( 'NONE',  ( -0.0000000000000000000, 1.000000000000000000, -0.0000000000000000000 ) ) ;
#195 = CARTESIAN_POINT ( 'NONE',  ( 0.0000000000000000000, -9.208365352543511400, 0.0000000000000000000 ) ) ;
#196 = DIRECTION ( 'NONE',  ( -0.0000000000000000000, 1.000000000000000000, -0.0000000000000000000 ) ) ;
#197 = DIRECTION ( 'NONE',  ( 1.224646799147353000E-016, 0.0000000000000000000, -1.000000000000000000 ) ) ;
#198 = DIRECTION ( 'NONE',  ( 1.000000000000000000, 0.0000000000000000000, 1.224646799147353200E-016 ) ) ;
#199 = DIRECTION ( 'NONE',  ( 0.0000000000000000000, 0.0000000000000000000, -1.000000000000000000 ) ) ;
#200 = SECURITY_CLASSIFICATION_LEVEL ( 'unclassified' ) ;
#201 = CARTESIAN_POINT ( 'NONE',  ( 1.148939419395868000E-015, -8.500000000000003600, -9.381802330237619000 ) ) ;
#202 = DIRECTION ( 'NONE',  ( 0.0000000000000000000, 0.0000000000000000000, 1.000000000000000000 ) ) ;
#203 = DIRECTION ( 'NONE',  ( -0.0000000000000000000, 1.000000000000000000, -0.0000000000000000000 ) ) ;
#204 = CARTESIAN_POINT ( 'NONE',  ( 0.0000000000000000000, 26.19748375073886800, 0.0000000000000000000 ) ) ;
#205 = APPLICATION_PROTOCOL_DEFINITION ( 'international standard', 'config_control_design', 1994, #112 ) ;
#206 = DIRECTION ( 'NONE',  ( 0.0000000000000000000, 0.0000000000000000000, 1.000000000000000000 ) ) ;
#207 = MECHANICAL_CONTEXT ( 'NONE', #171, 'mechanical' ) ;
#208 = CARTESIAN_POINT ( 'NONE',  ( 0.0000000000000000000, -11.00000000000001100, 0.0000000000000000000 ) ) ;
#209 = APPLICATION_PROTOCOL_DEFINITION ( 'international standard', 'config_control_design', 1994, #171 ) ;
#210 = PERSON_AND_ORGANIZATION_ROLE ( 'classification_officer' ) ;
#211 = CARTESIAN_POINT ( 'NONE',  ( 0.0000000000000000000, 26.19748375073886800, 0.0000000000000000000 ) ) ;
#212 = DIRECTION ( 'NONE',  ( 0.0000000000000000000, 0.0000000000000000000, 1.000000000000000000 ) ) ;
#213 = APPROVAL_ROLE ( '' ) ;
#214 = DIRECTION ( 'NONE',  ( -0.0000000000000000000, 1.000000000000000000, -0.0000000000000000000 ) ) ;
#215 = DIRECTION ( 'NONE',  ( 0.0000000000000000000, 0.0000000000000000000, 1.000000000000000000 ) ) ;
#216 = APPROVAL_STATUS ( 'not_yet_approved' ) ;
#217 = CARTESIAN_POINT ( 'NONE',  ( 0.0000000000000000000, -8.500000000000003600, 0.0000000000000000000 ) ) ;
#218 = APPROVAL_ROLE ( '' ) ;
#219 = APPROVAL ( #188, 'UNSPECIFIED' ) ;
#220 = APPROVAL ( #135, 'UNSPECIFIED' ) ;
#221 = CC_DESIGN_PERSON_AND_ORGANIZATION_ASSIGNMENT ( #329, #155, ( #241 ) ) ;
#222 = PRODUCT_DEFINITION_FORMATION_WITH_SPECIFIED_SOURCE ( 'ANY', '', #241, .NOT_KNOWN. ) ;
#223 = APPROVAL ( #216, 'UNSPECIFIED' ) ;
#224 = CC_DESIGN_APPROVAL ( #220, ( #222 ) ) ;
#225 = AXIS2_PLACEMENT_3D ( 'NONE', #95, #94, #92 ) ;
#226 = VECTOR ( 'NONE', #116, 1000.000000000000000 ) ;
#227 = CC_DESIGN_PERSON_AND_ORGANIZATION_ASSIGNMENT ( #336, #100, ( #228 ) ) ;
#228 = PRODUCT_DEFINITION ( 'UNKNOWN', '', #222, #52 ) ;
#229 = CC_DESIGN_PERSON_AND_ORGANIZATION_ASSIGNMENT ( #348, #210, ( #230 ) ) ;
#230 = SECURITY_CLASSIFICATION ( '', '', #200 ) ;
#231 = CC_DESIGN_DATE_AND_TIME_ASSIGNMENT ( #339, #149, ( #228 ) ) ;
#232 = PRODUCT_RELATED_PRODUCT_CATEGORY ( 'detail', '', ( #241 ) ) ;
#233 = CC_DESIGN_PERSON_AND_ORGANIZATION_ASSIGNMENT ( #346, #132, ( #222 ) ) ;
#234 = CC_DESIGN_APPROVAL ( #219, ( #228 ) ) ;
#235 = CC_DESIGN_DATE_AND_TIME_ASSIGNMENT ( #351, #140, ( #230 ) ) ;
#236 = CC_DESIGN_APPROVAL ( #223, ( #230 ) ) ;
#237 = CC_DESIGN_PERSON_AND_ORGANIZATION_ASSIGNMENT ( #347, #141, ( #222 ) ) ;
#238 = CC_DESIGN_SECURITY_CLASSIFICATION ( #230, ( #222 ) ) ;
#239 = UNCERTAINTY_MEASURE_WITH_UNIT (LENGTH_MEASURE( 1.000000000000000100E-005 ), #98, 'distance_accuracy_value', 'NONE');
#240 = PERSON ( 'UNSPECIFIED', 'UNSPECIFIED', 'UNSPECIFIED', ('UNSPECIFIED'), ('UNSPECIFIED'), ('UNSPECIFIED') ) ;
#241 = PRODUCT ( 'C-31-4-EP-UL', 'C-31-4-EP-UL', '', ( #207 ) ) ;
#242 = ORIENTED_EDGE ( 'NONE', *, *, #58, .F. ) ;
#243 = ORIENTED_EDGE ( 'NONE', *, *, #65, .T. ) ;
#244 = ORIENTED_EDGE ( 'NONE', *, *, #81, .T. ) ;
#245 = ORIENTED_EDGE ( 'NONE', *, *, #59, .F. ) ;
#246 = ORIENTED_EDGE ( 'NONE', *, *, #85, .F. ) ;
#247 = ORIENTED_EDGE ( 'NONE', *, *, #86, .T. ) ;
#248 = ORIENTED_EDGE ( 'NONE', *, *, #86, .F. ) ;
#249 = ORIENTED_EDGE ( 'NONE', *, *, #84, .F. ) ;
#250 = ORIENTED_EDGE ( 'NONE', *, *, #87, .T. ) ;
#251 = ORIENTED_EDGE ( 'NONE', *, *, #85, .T. ) ;
#252 = ORIENTED_EDGE ( 'NONE', *, *, #61, .F. ) ;
#253 = ORIENTED_EDGE ( 'NONE', *, *, #67, .T. ) ;
#254 = ORIENTED_EDGE ( 'NONE', *, *, #83, .F. ) ;
#255 = ORIENTED_EDGE ( 'NONE', *, *, #64, .T. ) ;
#256 = ORIENTED_EDGE ( 'NONE', *, *, #63, .F. ) ;
#257 = ORIENTED_EDGE ( 'NONE', *, *, #82, .F. ) ;
#258 = ORIENTED_EDGE ( 'NONE', *, *, #66, .T. ) ;
#259 = ORIENTED_EDGE ( 'NONE', *, *, #84, .T. ) ;
#260 = ORIENTED_EDGE ( 'NONE', *, *, #83, .T. ) ;
#261 = ORIENTED_EDGE ( 'NONE', *, *, #80, .F. ) ;
#262 = ORIENTED_EDGE ( 'NONE', *, *, #89, .F. ) ;
#263 = ORIENTED_EDGE ( 'NONE', *, *, #81, .F. ) ;
#264 = ORIENTED_EDGE ( 'NONE', *, *, #80, .T. ) ;
#265 = ORIENTED_EDGE ( 'NONE', *, *, #79, .T. ) ;
#266 = ORIENTED_EDGE ( 'NONE', *, *, #79, .F. ) ;
#267 = VERTEX_POINT ( 'NONE', #115 ) ;
#268 = VERTEX_POINT ( 'NONE', #114 ) ;
#269 = VERTEX_POINT ( 'NONE', #111 ) ;
#270 = VERTEX_POINT ( 'NONE', #110 ) ;
#271 = VERTEX_POINT ( 'NONE', #109 ) ;
#272 = VERTEX_POINT ( 'NONE', #107 ) ;
#273 = VERTEX_POINT ( 'NONE', #106 ) ;
#274 = VERTEX_POINT ( 'NONE', #105 ) ;
#275 = VERTEX_POINT ( 'NONE', #104 ) ;
#276 = VERTEX_POINT ( 'NONE', #102 ) ;
#277 = VERTEX_POINT ( 'NONE', #101 ) ;
#278 = VERTEX_POINT ( 'NONE', #99 ) ;
#279 = ORIENTED_EDGE ( 'NONE', *, *, #89, .T. ) ;
#280 = ORIENTED_EDGE ( 'NONE', *, *, #82, .T. ) ;
#281 = ORIENTED_EDGE ( 'NONE', *, *, #67, .F. ) ;
#282 = ORIENTED_EDGE ( 'NONE', *, *, #87, .F. ) ;
#283 = ORIENTED_EDGE ( 'NONE', *, *, #65, .F. ) ;
#284 = ORIENTED_EDGE ( 'NONE', *, *, #66, .F. ) ;
#285 = ORIENTED_EDGE ( 'NONE', *, *, #61, .T. ) ;
#286 = ORIENTED_EDGE ( 'NONE', *, *, #62, .F. ) ;
#287 = ORIENTED_EDGE ( 'NONE', *, *, #64, .F. ) ;
#288 = ORIENTED_EDGE ( 'NONE', *, *, #60, .T. ) ;
#289 = ORIENTED_EDGE ( 'NONE', *, *, #59, .T. ) ;
#290 = ORIENTED_EDGE ( 'NONE', *, *, #62, .T. ) ;
#291 = ORIENTED_EDGE ( 'NONE', *, *, #60, .F. ) ;
#292 = ORIENTED_EDGE ( 'NONE', *, *, #58, .T. ) ;
#293 = ORIENTED_EDGE ( 'NONE', *, *, #63, .T. ) ;
#294 = EDGE_LOOP ( 'NONE', ( #284, #293, #290, #281 ) ) ;
#295 = EDGE_LOOP ( 'NONE', ( #292, #289, #291, #282 ) ) ;
#296 = EDGE_LOOP ( 'NONE', ( #288, #285, #286, #287 ) ) ;
#297 = EDGE_LOOP ( 'NONE', ( #283, #279, #280, #266 ) ) ;
#298 = EDGE_LOOP ( 'NONE', ( #262, #263, #265, #264 ) ) ;
#299 = EDGE_LOOP ( 'NONE', ( #260, #258 ) ) ;
#300 = EDGE_LOOP ( 'NONE', ( #256, #254, #253, #259 ) ) ;
#301 = EDGE_LOOP ( 'NONE', ( #252, #251, #255, #249 ) ) ;
#302 = EDGE_LOOP ( 'NONE', ( #261, #257 ) ) ;
#303 = EDGE_LOOP ( 'NONE', ( #245, #247, #250, #246 ) ) ;
#304 = EDGE_LOOP ( 'NONE', ( #242, #248 ) ) ;
#305 = EDGE_LOOP ( 'NONE', ( #244, #243 ) ) ;
#306 = CLOSED_SHELL ( 'NONE', ( #73, #75, #88, #71, #72, #76, #68, #69, #74, #77, #78 ) ) ;
#307 = FACE_OUTER_BOUND ( 'NONE', #301, .T. ) ;
#308 = LINE ( 'NONE', #190, #19 ) ;
#309 = LINE ( 'NONE', #180, #41 ) ;
#310 = LINE ( 'NONE', #167, #14 ) ;
#311 = LINE ( 'NONE', #118, #39 ) ;
#312 = FACE_OUTER_BOUND ( 'NONE', #300, .T. ) ;
#313 = FACE_OUTER_BOUND ( 'NONE', #297, .T. ) ;
#314 = CYLINDRICAL_SURFACE ( 'NONE', #21, 8.499999999999996400 ) ;
#315 = FACE_OUTER_BOUND ( 'NONE', #298, .T. ) ;
#316 = CYLINDRICAL_SURFACE ( 'NONE', #20, 8.499999999999996400 ) ;
#317 = FACE_OUTER_BOUND ( 'NONE', #295, .T. ) ;
#318 = FACE_OUTER_BOUND ( 'NONE', #303, .T. ) ;
#319 = FACE_OUTER_BOUND ( 'NONE', #296, .T. ) ;
#320 = FACE_OUTER_BOUND ( 'NONE', #299, .T. ) ;
#321 = FACE_BOUND ( 'NONE', #302, .T. ) ;
#322 = FACE_OUTER_BOUND ( 'NONE', #304, .T. ) ;
#323 = FACE_OUTER_BOUND ( 'NONE', #305, .T. ) ;
#324 = LINE ( 'NONE', #159, #48 ) ;
#325 = LINE ( 'NONE', #117, #226 ) ;
#326 = FACE_OUTER_BOUND ( 'NONE', #294, .T. ) ;
#327 = SHAPE_DEFINITION_REPRESENTATION ( #51, #91 ) ;
#328 = ORGANIZATION ( 'UNSPECIFIED', 'UNSPECIFIED', '' ) ;
#329 = PERSON_AND_ORGANIZATION ( #240, #328 ) ;
#330 = PERSON_AND_ORGANIZATION ( #240, #328 ) ;
#331 = APPROVAL_PERSON_ORGANIZATION ( #330, #219, #218 ) ;
#332 = COORDINATED_UNIVERSAL_TIME_OFFSET ( 9, 0, .AHEAD. ) ;
#333 = CALENDAR_DATE ( 2012, 23, 8 ) ;
#334 = DATE_AND_TIME ( #333, #57 ) ;
#335 = APPROVAL_DATE_TIME ( #334, #219 ) ;
#336 = PERSON_AND_ORGANIZATION ( #240, #328 ) ;
#337 = COORDINATED_UNIVERSAL_TIME_OFFSET ( 9, 0, .AHEAD. ) ;
#338 = CALENDAR_DATE ( 2012, 23, 8 ) ;
#339 = DATE_AND_TIME ( #338, #56 ) ;
#340 = PERSON_AND_ORGANIZATION ( #240, #328 ) ;
#341 = APPROVAL_PERSON_ORGANIZATION ( #340, #220, #185 ) ;
#342 = COORDINATED_UNIVERSAL_TIME_OFFSET ( 9, 0, .AHEAD. ) ;
#343 = CALENDAR_DATE ( 2012, 23, 8 ) ;
#344 = DATE_AND_TIME ( #343, #55 ) ;
#345 = APPROVAL_DATE_TIME ( #344, #220 ) ;
#346 = PERSON_AND_ORGANIZATION ( #240, #328 ) ;
#347 = PERSON_AND_ORGANIZATION ( #240, #328 ) ;
#348 = PERSON_AND_ORGANIZATION ( #240, #328 ) ;
#349 = COORDINATED_UNIVERSAL_TIME_OFFSET ( 9, 0, .AHEAD. ) ;
#350 = CALENDAR_DATE ( 2012, 23, 8 ) ;
#351 = DATE_AND_TIME ( #350, #54 ) ;
#352 = PERSON_AND_ORGANIZATION ( #240, #328 ) ;
#353 = APPROVAL_PERSON_ORGANIZATION ( #352, #223, #213 ) ;
#354 = COORDINATED_UNIVERSAL_TIME_OFFSET ( 9, 0, .AHEAD. ) ;
#355 = CALENDAR_DATE ( 2012, 23, 8 ) ;
#356 = DATE_AND_TIME ( #355, #53 ) ;
#357 = APPROVAL_DATE_TIME ( #356, #223 ) ;
ENDSEC;
END-ISO-10303-21;
