ISO-10303-21;
HEADER;
FILE_DESCRIPTION (( 'STEP AP203' ),
    '1' );
FILE_NAME ('C-31-3-EP-UL.STEP',
    '2012-08-23T02:02:59',
    ( '11sw' ),
    ( '^LQ»¢®ïÐ' ),
    'SwSTEP 2.0',
    'SolidWorks 2011',
    '' );
FILE_SCHEMA (( 'CONFIG_CONTROL_DESIGN' ));
ENDSEC;

DATA;
#1 = PRODUCT ( 'C-31-3-EP-UL', 'C-31-3-EP-UL', '', ( #149 ) ) ;
#2 = PERSON ( 'UNSPECIFIED', 'UNSPECIFIED', 'UNSPECIFIED', ('UNSPECIFIED'), ('UNSPECIFIED'), ('UNSPECIFIED') ) ;
#3 = UNCERTAINTY_MEASURE_WITH_UNIT (LENGTH_MEASURE( 1.000000000000000100E-005 ), #136, 'distance_accuracy_value', 'NONE');
#4 = DESIGN_CONTEXT ( 'detailed design', #155, 'design' ) ;
#5 = PRODUCT_DEFINITION_SHAPE ( 'NONE', 'NONE',  #190 ) ;
#6 = LOCAL_TIME ( 11, 2, 59.00000000000000000, #353 ) ;
#7 = LOCAL_TIME ( 11, 2, 59.00000000000000000, #282 ) ;
#8 = LOCAL_TIME ( 11, 2, 59.00000000000000000, #313 ) ;
#9 = LOCAL_TIME ( 11, 2, 59.00000000000000000, #355 ) ;
#10 = ADVANCED_FACE ( 'NONE', ( #300 ), #232, .T. ) ;
#11 = ADVANCED_FACE ( 'NONE', ( #337, #348 ), #126, .T. ) ;
#12 = ADVANCED_FACE ( 'NONE', ( #325 ), #224, .T. ) ;
#13 = ADVANCED_FACE ( 'NONE', ( #304 ), #213, .T. ) ;
#14 = EDGE_CURVE ( 'NONE', #263, #307, #239, .T. ) ;
#15 = EDGE_CURVE ( 'NONE', #289, #263, #217, .T. ) ;
#16 = EDGE_CURVE ( 'NONE', #293, #307, #219, .T. ) ;
#17 = EDGE_CURVE ( 'NONE', #289, #293, #222, .T. ) ;
#18 = EDGE_CURVE ( 'NONE', #307, #326, #245, .T. ) ;
#19 = EDGE_CURVE ( 'NONE', #328, #326, #214, .T. ) ;
#20 = EDGE_CURVE ( 'NONE', #293, #328, #347, .T. ) ;
#21 = EDGE_CURVE ( 'NONE', #333, #328, #314, .T. ) ;
#22 = EDGE_CURVE ( 'NONE', #333, #267, #218, .T. ) ;
#23 = EDGE_CURVE ( 'NONE', #267, #326, #284, .T. ) ;
#24 = EDGE_CURVE ( 'NONE', #301, #332, #254, .T. ) ;
#25 = EDGE_CURVE ( 'NONE', #301, #287, #204, .T. ) ;
#26 = ADVANCED_FACE ( 'NONE', ( #261 ), #215, .T. ) ;
#27 = ADVANCED_FACE ( 'NONE', ( #321 ), #45, .T. ) ;
#28 = ADVANCED_FACE ( 'NONE', ( #298 ), #223, .T. ) ;
#29 = ADVANCED_FACE ( 'NONE', ( #266 ), #140, .T. ) ;
#30 = EDGE_CURVE ( 'NONE', #263, #289, #241, .T. ) ;
#31 = EDGE_CURVE ( 'NONE', #326, #328, #195, .T. ) ;
#32 = EDGE_CURVE ( 'NONE', #332, #351, #235, .T. ) ;
#33 = EDGE_CURVE ( 'NONE', #307, #293, #237, .T. ) ;
#34 = EDGE_CURVE ( 'NONE', #287, #351, #310, .T. ) ;
#35 = EDGE_CURVE ( 'NONE', #287, #301, #238, .T. ) ;
#36 = EDGE_CURVE ( 'NONE', #351, #332, #229, .T. ) ;
#37 = ADVANCED_FACE ( 'NONE', ( #299 ), #341, .F. ) ;
#38 = ADVANCED_FACE ( 'NONE', ( #312 ), #220, .T. ) ;
#39 = EDGE_CURVE ( 'NONE', #267, #333, #198, .T. ) ;
#40 = LOCAL_TIME ( 11, 2, 59.00000000000000000, #323 ) ;
#41 = ADVANCED_FACE ( 'NONE', ( #292 ), #331, .F. ) ;
#42 =( GEOMETRIC_REPRESENTATION_CONTEXT ( 3 ) GLOBAL_UNCERTAINTY_ASSIGNED_CONTEXT ( ( #3 ) ) GLOBAL_UNIT_ASSIGNED_CONTEXT ( ( #136, #115, #144 ) ) REPRESENTATION_CONTEXT ( 'NONE', 'WORKASPACE' ) );
#43 = ADVANCED_BREP_SHAPE_REPRESENTATION ( 'C-31-3-EP-UL', ( #44, #173 ), #42 ) ;
#44 = MANIFOLD_SOLID_BREP ( 'ñ]1', #251 ) ;
#45 = PLANE ( 'NONE',  #199 ) ;
#46 = DIRECTION ( 'NONE',  ( 0.0000000000000000000, 0.0000000000000000000, 1.000000000000000000 ) ) ;
#47 = DIRECTION ( 'NONE',  ( -0.0000000000000000000, 1.000000000000000000, -0.0000000000000000000 ) ) ;
#48 = PERSON_AND_ORGANIZATION_ROLE ( 'creator' ) ;
#49 = DIRECTION ( 'NONE',  ( -0.0000000000000000000, 1.000000000000000000, -0.0000000000000000000 ) ) ;
#50 = CARTESIAN_POINT ( 'NONE',  ( 0.0000000000000000000, -3.469446951953614200E-015, 0.0000000000000000000 ) ) ;
#51 = CARTESIAN_POINT ( 'NONE',  ( 0.0000000000000000000, -9.000000000000001800, 11.49457098408530500 ) ) ;
#52 = DIRECTION ( 'NONE',  ( 0.0000000000000000000, 0.0000000000000000000, 1.000000000000000000 ) ) ;
#53 = DIRECTION ( 'NONE',  ( -0.0000000000000000000, 1.000000000000000000, -0.0000000000000000000 ) ) ;
#54 = CARTESIAN_POINT ( 'NONE',  ( 0.0000000000000000000, 0.0000000000000000000, 0.0000000000000000000 ) ) ;
#55 = DATE_TIME_ROLE ( 'creation_date' ) ;
#56 = CARTESIAN_POINT ( 'NONE',  ( 0.0000000000000000000, 24.99999999999999600, 0.0000000000000000000 ) ) ;
#57 = PERSON_AND_ORGANIZATION_ROLE ( 'creator' ) ;
#58 = DIRECTION ( 'NONE',  ( -0.0000000000000000000, 1.000000000000000000, -0.0000000000000000000 ) ) ;
#59 = CARTESIAN_POINT ( 'NONE',  ( 1.273632671113246900E-015, 26.19748375073886800, -10.39999999999999700 ) ) ;
#60 = DIRECTION ( 'NONE',  ( 0.0000000000000000000, -0.9923995370865313900, -0.1230575425987297000 ) ) ;
#61 = CARTESIAN_POINT ( 'NONE',  ( 0.0000000000000000000, 24.99999999999999600, -12.40000000000000200 ) ) ;
#62 = DIRECTION ( 'NONE',  ( -0.0000000000000000000, 1.000000000000000000, -0.0000000000000000000 ) ) ;
#63 = APPLICATION_CONTEXT ( 'configuration controlled 3d designs of mechanical parts and assemblies' ) ;
#64 = PERSON_AND_ORGANIZATION_ROLE ( 'design_owner' ) ;
#65 = DIRECTION ( 'NONE',  ( -0.0000000000000000000, 1.000000000000000000, -0.0000000000000000000 ) ) ;
#66 = DIRECTION ( 'NONE',  ( 0.0000000000000000000, 0.0000000000000000000, 1.000000000000000000 ) ) ;
#67 = DIRECTION ( 'NONE',  ( -0.0000000000000000000, 1.000000000000000000, -0.0000000000000000000 ) ) ;
#68 = CARTESIAN_POINT ( 'NONE',  ( 0.0000000000000000000, 24.99999999999999600, 0.0000000000000000000 ) ) ;
#69 = DIRECTION ( 'NONE',  ( 1.507020256544733800E-017, -0.9923995370865313900, 0.1230575425987297000 ) ) ;
#70 = DIRECTION ( 'NONE',  ( -0.0000000000000000000, 1.000000000000000000, -0.0000000000000000000 ) ) ;
#71 = DIRECTION ( 'NONE',  ( -0.0000000000000000000, 1.000000000000000000, -0.0000000000000000000 ) ) ;
#72 = CARTESIAN_POINT ( 'NONE',  ( 0.0000000000000000000, -9.000000000000003600, 11.49457098408530500 ) ) ;
#73 = CARTESIAN_POINT ( 'NONE',  ( 1.898202538678397200E-015, -3.469446951953614200E-015, 15.49999999999999600 ) ) ;
#74 = CARTESIAN_POINT ( 'NONE',  ( 1.518562030942718200E-015, 24.99999999999999600, 12.40000000000000200 ) ) ;
#75 = APPROVAL_ROLE ( '' ) ;
#76 = DIRECTION ( 'NONE',  ( 0.0000000000000000000, 0.9761870601839525200, 0.2169304578186566900 ) ) ;
#77 = CARTESIAN_POINT ( 'NONE',  ( 0.0000000000000000000, -3.469446951953614200E-015, 15.49999999999999600 ) ) ;
#78 = DIRECTION ( 'NONE',  ( 0.0000000000000000000, 0.0000000000000000000, 1.000000000000000000 ) ) ;
#79 = DIRECTION ( 'NONE',  ( -0.0000000000000000000, 1.000000000000000000, -0.0000000000000000000 ) ) ;
#80 = DIRECTION ( 'NONE',  ( 0.0000000000000000000, -1.000000000000000000, 0.0000000000000000000 ) ) ;
#81 = CARTESIAN_POINT ( 'NONE',  ( 0.0000000000000000000, -3.469446951953614200E-015, 0.0000000000000000000 ) ) ;
#82 = DATE_TIME_ROLE ( 'classification_date' ) ;
#83 = DIRECTION ( 'NONE',  ( 2.656631908051878500E-017, 0.9761870601839525200, -0.2169304578186566900 ) ) ;
#84 = DIRECTION ( 'NONE',  ( 0.0000000000000000000, 0.0000000000000000000, 1.000000000000000000 ) ) ;
#85 = CARTESIAN_POINT ( 'NONE',  ( 1.898202538678397200E-015, -3.469446951953614200E-015, -15.49999999999999600 ) ) ;
#86 = DIRECTION ( 'NONE',  ( 0.0000000000000000000, 0.0000000000000000000, 1.000000000000000000 ) ) ;
#87 = APPROVAL_ROLE ( '' ) ;
#88 = DIRECTION ( 'NONE',  ( -1.000000000000000000, 0.0000000000000000000, 0.0000000000000000000 ) ) ;
#89 = CARTESIAN_POINT ( 'NONE',  ( 0.0000000000000000000, -6.500000000000004400, 11.49457098408530500 ) ) ;
#90 = CARTESIAN_POINT ( 'NONE',  ( 0.0000000000000000000, 24.99999999999999300, 0.0000000000000000000 ) ) ;
#91 = SECURITY_CLASSIFICATION_LEVEL ( 'unclassified' ) ;
#92 = DIRECTION ( 'NONE',  ( 0.0000000000000000000, 0.0000000000000000000, 1.000000000000000000 ) ) ;
#93 = CARTESIAN_POINT ( 'NONE',  ( 1.802376292328721900E-015, -7.042326144546640500, -13.93503863454518500 ) ) ;
#94 = CARTESIAN_POINT ( 'NONE',  ( 0.0000000000000000000, 0.0000000000000000000, 10.39999999999999700 ) ) ;
#95 = CARTESIAN_POINT ( 'NONE',  ( 0.0000000000000000000, 0.0000000000000000000, 0.0000000000000000000 ) ) ;
#96 = CARTESIAN_POINT ( 'NONE',  ( 0.0000000000000000000, -7.042326144546640500, 13.93503863454518500 ) ) ;
#97 = CARTESIAN_POINT ( 'NONE',  ( 0.0000000000000000000, -6.500000000000004400, 0.0000000000000000000 ) ) ;
#98 = DIRECTION ( 'NONE',  ( -0.0000000000000000000, 1.000000000000000000, -0.0000000000000000000 ) ) ;
#99 = DIRECTION ( 'NONE',  ( 0.0000000000000000000, 0.0000000000000000000, 1.000000000000000000 ) ) ;
#100 = CARTESIAN_POINT ( 'NONE',  ( 0.0000000000000000000, 24.99999999999999300, 10.39999999999999700 ) ) ;
#101 = APPLICATION_PROTOCOL_DEFINITION ( 'international standard', 'config_control_design', 1994, #63 ) ;
#102 = DIRECTION ( 'NONE',  ( -0.0000000000000000000, 1.000000000000000000, -0.0000000000000000000 ) ) ;
#103 = CARTESIAN_POINT ( 'NONE',  ( 0.0000000000000000000, -7.042326144546640500, 0.0000000000000000000 ) ) ;
#104 = DIRECTION ( 'NONE',  ( 0.0000000000000000000, 0.0000000000000000000, 1.000000000000000000 ) ) ;
#105 = DIRECTION ( 'NONE',  ( -0.0000000000000000000, 1.000000000000000000, -0.0000000000000000000 ) ) ;
#106 = CARTESIAN_POINT ( 'NONE',  ( 0.0000000000000000000, -9.000000000000001800, 0.0000000000000000000 ) ) ;
#107 = DIRECTION ( 'NONE',  ( 1.224646799147352700E-016, 0.0000000000000000000, -1.000000000000000000 ) ) ;
#108 = DIRECTION ( 'NONE',  ( 0.0000000000000000000, 0.0000000000000000000, 1.000000000000000000 ) ) ;
#109 = DIRECTION ( 'NONE',  ( 1.000000000000000000, 0.0000000000000000000, 1.224646799147353200E-016 ) ) ;
#110 = CARTESIAN_POINT ( 'NONE',  ( 1.407678956323211000E-015, -6.500000000000004400, -11.49457098408530500 ) ) ;
#111 = DIRECTION ( 'NONE',  ( 0.0000000000000000000, 0.0000000000000000000, 1.000000000000000000 ) ) ;
#112 = CARTESIAN_POINT ( 'NONE',  ( 0.0000000000000000000, -3.469446951953614200E-015, -15.49999999999999600 ) ) ;
#113 = DIRECTION ( 'NONE',  ( 0.0000000000000000000, 0.0000000000000000000, 1.000000000000000000 ) ) ;
#114 = DIRECTION ( 'NONE',  ( -0.0000000000000000000, 1.000000000000000000, -0.0000000000000000000 ) ) ;
#115 =( NAMED_UNIT ( * ) PLANE_ANGLE_UNIT ( ) SI_UNIT ( $, .RADIAN. ) );
#116 = CARTESIAN_POINT ( 'NONE',  ( 0.0000000000000000000, -6.500000000000004400, 0.0000000000000000000 ) ) ;
#117 = DIRECTION ( 'NONE',  ( 0.0000000000000000000, 0.0000000000000000000, 1.000000000000000000 ) ) ;
#118 = DIRECTION ( 'NONE',  ( -0.0000000000000000000, 1.000000000000000000, -0.0000000000000000000 ) ) ;
#119 = CARTESIAN_POINT ( 'NONE',  ( 0.0000000000000000000, -3.469446951953614200E-015, 0.0000000000000000000 ) ) ;
#120 = DIRECTION ( 'NONE',  ( 0.0000000000000000000, 0.0000000000000000000, 1.000000000000000000 ) ) ;
#121 = APPLICATION_PROTOCOL_DEFINITION ( 'international standard', 'config_control_design', 1994, #155 ) ;
#122 = DIRECTION ( 'NONE',  ( -0.0000000000000000000, 1.000000000000000000, 0.0000000000000000000 ) ) ;
#123 = CARTESIAN_POINT ( 'NONE',  ( 0.0000000000000000000, 24.99999999999999300, 10.39999999999999700 ) ) ;
#124 = DIRECTION ( 'NONE',  ( -0.0000000000000000000, 1.000000000000000000, -0.0000000000000000000 ) ) ;
#125 = CARTESIAN_POINT ( 'NONE',  ( 0.0000000000000000000, 24.99999999999999600, 0.0000000000000000000 ) ) ;
#126 = PLANE ( 'NONE',  #202 ) ;
#127 = DIRECTION ( 'NONE',  ( 0.0000000000000000000, 0.0000000000000000000, -1.000000000000000000 ) ) ;
#128 = DIRECTION ( 'NONE',  ( 0.0000000000000000000, -1.000000000000000000, 0.0000000000000000000 ) ) ;
#129 = CARTESIAN_POINT ( 'NONE',  ( 0.0000000000000000000, 24.99999999999999600, 0.0000000000000000000 ) ) ;
#130 = APPROVAL_ROLE ( '' ) ;
#131 = APPROVAL_STATUS ( 'not_yet_approved' ) ;
#132 = CARTESIAN_POINT ( 'NONE',  ( 0.0000000000000000000, -3.469446951953614200E-015, 0.0000000000000000000 ) ) ;
#133 = CARTESIAN_POINT ( 'NONE',  ( 0.0000000000000000000, 26.19748375073886800, 10.39999999999999700 ) ) ;
#134 = DIRECTION ( 'NONE',  ( 0.0000000000000000000, 0.0000000000000000000, 1.000000000000000000 ) ) ;
#135 = APPROVAL_STATUS ( 'not_yet_approved' ) ;
#136 =( LENGTH_UNIT ( ) NAMED_UNIT ( * ) SI_UNIT ( .MILLI., .METRE. ) );
#137 = CARTESIAN_POINT ( 'NONE',  ( 0.0000000000000000000, 24.99999999999999600, -12.40000000000000200 ) ) ;
#138 = CARTESIAN_POINT ( 'NONE',  ( 1.273632671113246900E-015, 0.0000000000000000000, -10.39999999999999700 ) ) ;
#139 = DIRECTION ( 'NONE',  ( 0.0000000000000000000, 0.0000000000000000000, 1.000000000000000000 ) ) ;
#140 = PLANE ( 'NONE',  #206 ) ;
#141 = DIRECTION ( 'NONE',  ( 0.0000000000000000000, 0.0000000000000000000, 1.000000000000000000 ) ) ;
#142 = CARTESIAN_POINT ( 'NONE',  ( 0.0000000000000000000, -7.042326144546640500, 0.0000000000000000000 ) ) ;
#143 = DIRECTION ( 'NONE',  ( 0.0000000000000000000, 0.0000000000000000000, 1.000000000000000000 ) ) ;
#144 =( NAMED_UNIT ( * ) SI_UNIT ( $, .STERADIAN. ) SOLID_ANGLE_UNIT ( ) );
#145 = DIRECTION ( 'NONE',  ( 0.0000000000000000000, 0.0000000000000000000, 1.000000000000000000 ) ) ;
#146 = DIRECTION ( 'NONE',  ( 0.0000000000000000000, -1.000000000000000000, 0.0000000000000000000 ) ) ;
#147 = CARTESIAN_POINT ( 'NONE',  ( 0.0000000000000000000, 0.0000000000000000000, 0.0000000000000000000 ) ) ;
#148 = CARTESIAN_POINT ( 'NONE',  ( 1.557114501151128900E-015, -9.000000000000001800, -11.49457098408530500 ) ) ;
#149 = MECHANICAL_CONTEXT ( 'NONE', #63, 'mechanical' ) ;
#150 = DIRECTION ( 'NONE',  ( 0.0000000000000000000, 0.0000000000000000000, 1.000000000000000000 ) ) ;
#151 = PERSON_AND_ORGANIZATION_ROLE ( 'design_supplier' ) ;
#152 = DIRECTION ( 'NONE',  ( -0.0000000000000000000, 1.000000000000000000, -0.0000000000000000000 ) ) ;
#153 = DIRECTION ( 'NONE',  ( -0.0000000000000000000, 1.000000000000000000, -0.0000000000000000000 ) ) ;
#154 = DIRECTION ( 'NONE',  ( -0.0000000000000000000, 1.000000000000000000, 0.0000000000000000000 ) ) ;
#155 = APPLICATION_CONTEXT ( 'configuration controlled 3d designs of mechanical parts and assemblies' ) ;
#156 = APPROVAL_STATUS ( 'not_yet_approved' ) ;
#157 = CARTESIAN_POINT ( 'NONE',  ( 1.708382284810557800E-015, 24.99999999999999600, 12.40000000000000200 ) ) ;
#158 = DIRECTION ( 'NONE',  ( -0.0000000000000000000, 1.000000000000000000, -0.0000000000000000000 ) ) ;
#159 = DIRECTION ( 'NONE',  ( -0.0000000000000000000, 1.000000000000000000, -0.0000000000000000000 ) ) ;
#160 = DIRECTION ( 'NONE',  ( 0.0000000000000000000, -0.0000000000000000000, -1.000000000000000000 ) ) ;
#161 = CARTESIAN_POINT ( 'NONE',  ( 0.0000000000000000000, 24.99999999999999300, 0.0000000000000000000 ) ) ;
#162 = CARTESIAN_POINT ( 'NONE',  ( 1.273632671113246900E-015, 24.99999999999999300, -10.39999999999999700 ) ) ;
#163 = CARTESIAN_POINT ( 'NONE',  ( 0.0000000000000000000, -6.368163355566235400E-016, 0.0000000000000000000 ) ) ;
#164 = CARTESIAN_POINT ( 'NONE',  ( 0.0000000000000000000, -9.000000000000001800, 0.0000000000000000000 ) ) ;
#165 = DIRECTION ( 'NONE',  ( 0.0000000000000000000, 0.0000000000000000000, -1.000000000000000000 ) ) ;
#166 = CARTESIAN_POINT ( 'NONE',  ( 0.0000000000000000000, 26.19748375073886800, 0.0000000000000000000 ) ) ;
#167 = DIRECTION ( 'NONE',  ( 0.0000000000000000000, 0.0000000000000000000, 1.000000000000000000 ) ) ;
#168 = PERSON_AND_ORGANIZATION_ROLE ( 'classification_officer' ) ;
#169 = DIRECTION ( 'NONE',  ( 1.000000000000000000, 0.0000000000000000000, 0.0000000000000000000 ) ) ;
#170 = DIRECTION ( 'NONE',  ( 0.0000000000000000000, 0.0000000000000000000, 1.000000000000000000 ) ) ;
#171 = CARTESIAN_POINT ( 'NONE',  ( 0.0000000000000000000, 26.19748375073886800, 0.0000000000000000000 ) ) ;
#172 = AXIS2_PLACEMENT_3D ( 'NONE', #56, #158, #141 ) ;
#173 = AXIS2_PLACEMENT_3D ( 'NONE', #147, #99, #169 ) ;
#174 = PRODUCT_RELATED_PRODUCT_CATEGORY ( 'detail', '', ( #1 ) ) ;
#175 = CC_DESIGN_SECURITY_CLASSIFICATION ( #180, ( #185 ) ) ;
#176 = CC_DESIGN_APPROVAL ( #177, ( #180 ) ) ;
#177 = APPROVAL ( #135, 'UNSPECIFIED' ) ;
#178 = CC_DESIGN_DATE_AND_TIME_ASSIGNMENT ( #291, #82, ( #180 ) ) ;
#179 = CC_DESIGN_PERSON_AND_ORGANIZATION_ASSIGNMENT ( #281, #168, ( #180 ) ) ;
#180 = SECURITY_CLASSIFICATION ( '', '', #91 ) ;
#181 = CC_DESIGN_PERSON_AND_ORGANIZATION_ASSIGNMENT ( #279, #151, ( #185 ) ) ;
#182 = CC_DESIGN_PERSON_AND_ORGANIZATION_ASSIGNMENT ( #276, #57, ( #185 ) ) ;
#183 = CC_DESIGN_APPROVAL ( #184, ( #185 ) ) ;
#184 = APPROVAL ( #131, 'UNSPECIFIED' ) ;
#185 = PRODUCT_DEFINITION_FORMATION_WITH_SPECIFIED_SOURCE ( 'ANY', '', #1, .NOT_KNOWN. ) ;
#186 = CC_DESIGN_DATE_AND_TIME_ASSIGNMENT ( #349, #55, ( #190 ) ) ;
#187 = CC_DESIGN_PERSON_AND_ORGANIZATION_ASSIGNMENT ( #265, #48, ( #190 ) ) ;
#188 = CC_DESIGN_APPROVAL ( #189, ( #190 ) ) ;
#189 = APPROVAL ( #156, 'UNSPECIFIED' ) ;
#190 = PRODUCT_DEFINITION ( 'UNKNOWN', '', #185, #4 ) ;
#191 = CC_DESIGN_PERSON_AND_ORGANIZATION_ASSIGNMENT ( #309, #64, ( #1 ) ) ;
#192 = AXIS2_PLACEMENT_3D ( 'NONE', #166, #152, #170 ) ;
#193 = AXIS2_PLACEMENT_3D ( 'NONE', #119, #118, #117 ) ;
#194 = AXIS2_PLACEMENT_3D ( 'NONE', #125, #146, #165 ) ;
#195 = CIRCLE ( 'NONE', #200, 15.49999999999999600 ) ;
#196 = AXIS2_PLACEMENT_3D ( 'NONE', #110, #109, #107 ) ;
#197 = VECTOR ( 'NONE', #69, 1000.000000000000200 ) ;
#198 = CIRCLE ( 'NONE', #172, 12.40000000000000200 ) ;
#199 = AXIS2_PLACEMENT_3D ( 'NONE', #72, #80, #160 ) ;
#200 = AXIS2_PLACEMENT_3D ( 'NONE', #132, #70, #145 ) ;
#201 = AXIS2_PLACEMENT_3D ( 'NONE', #97, #159, #167 ) ;
#202 = AXIS2_PLACEMENT_3D ( 'NONE', #123, #122, #120 ) ;
#203 = AXIS2_PLACEMENT_3D ( 'NONE', #142, #98, #108 ) ;
#204 = CIRCLE ( 'NONE', #207, 10.39999999999999700 ) ;
#205 = AXIS2_PLACEMENT_3D ( 'NONE', #171, #153, #143 ) ;
#206 = AXIS2_PLACEMENT_3D ( 'NONE', #163, #154, #84 ) ;
#207 = AXIS2_PLACEMENT_3D ( 'NONE', #54, #53, #52 ) ;
#208 = VECTOR ( 'NONE', #60, 1000.000000000000200 ) ;
#209 = VECTOR ( 'NONE', #47, 1000.000000000000000 ) ;
#210 = VECTOR ( 'NONE', #58, 1000.000000000000000 ) ;
#211 = AXIS2_PLACEMENT_3D ( 'NONE', #81, #79, #78 ) ;
#212 = AXIS2_PLACEMENT_3D ( 'NONE', #103, #102, #92 ) ;
#213 = TOROIDAL_SURFACE ( 'NONE', #226, 11.49457098408530500, 2.499999999999997800 ) ;
#214 = CIRCLE ( 'NONE', #211, 15.49999999999999600 ) ;
#215 = CONICAL_SURFACE ( 'NONE', #234, 15.49999999999999600, 0.2186689458739425300 ) ;
#216 = VECTOR ( 'NONE', #76, 1000.000000000000100 ) ;
#217 = CIRCLE ( 'NONE', #240, 11.49457098408530500 ) ;
#218 = CIRCLE ( 'NONE', #231, 12.40000000000000200 ) ;
#219 = CIRCLE ( 'NONE', #212, 13.93503863454518500 ) ;
#220 = CONICAL_SURFACE ( 'NONE', #194, 12.40000000000000200, 0.1233702582820987000 ) ;
#221 = VECTOR ( 'NONE', #83, 1000.000000000000100 ) ;
#222 = CIRCLE ( 'NONE', #230, 2.499999999999998700 ) ;
#223 = TOROIDAL_SURFACE ( 'NONE', #201, 11.49457098408530500, 2.499999999999997800 ) ;
#224 = CONICAL_SURFACE ( 'NONE', #193, 15.49999999999999600, 0.2186689458739425300 ) ;
#225 = AXIS2_PLACEMENT_3D ( 'NONE', #95, #62, #150 ) ;
#226 = AXIS2_PLACEMENT_3D ( 'NONE', #116, #114, #113 ) ;
#227 = AXIS2_PLACEMENT_3D ( 'NONE', #129, #128, #127 ) ;
#228 = AXIS2_PLACEMENT_3D ( 'NONE', #164, #71, #111 ) ;
#229 = CIRCLE ( 'NONE', #236, 10.39999999999999700 ) ;
#230 = AXIS2_PLACEMENT_3D ( 'NONE', #89, #88, #86 ) ;
#231 = AXIS2_PLACEMENT_3D ( 'NONE', #68, #67, #66 ) ;
#232 = CONICAL_SURFACE ( 'NONE', #227, 12.40000000000000200, 0.1233702582820987000 ) ;
#233 = AXIS2_PLACEMENT_3D ( 'NONE', #161, #65, #139 ) ;
#234 = AXIS2_PLACEMENT_3D ( 'NONE', #50, #49, #46 ) ;
#235 = CIRCLE ( 'NONE', #233, 10.39999999999999700 ) ;
#236 = AXIS2_PLACEMENT_3D ( 'NONE', #90, #124, #134 ) ;
#237 = CIRCLE ( 'NONE', #203, 13.93503863454518500 ) ;
#238 = CIRCLE ( 'NONE', #225, 10.39999999999999700 ) ;
#239 = CIRCLE ( 'NONE', #196, 2.499999999999998700 ) ;
#240 = AXIS2_PLACEMENT_3D ( 'NONE', #106, #105, #104 ) ;
#241 = CIRCLE ( 'NONE', #228, 11.49457098408530500 ) ;
#242 = ORIENTED_EDGE ( 'NONE', *, *, #31, .T. ) ;
#243 = ORIENTED_EDGE ( 'NONE', *, *, #16, .F. ) ;
#244 = ORIENTED_EDGE ( 'NONE', *, *, #25, .F. ) ;
#245 = LINE ( 'NONE', #85, #221 ) ;
#246 = ORIENTED_EDGE ( 'NONE', *, *, #31, .F. ) ;
#247 = CALENDAR_DATE ( 2012, 23, 8 ) ;
#248 = APPROVAL_PERSON_ORGANIZATION ( #255, #184, #75 ) ;
#249 = ORIENTED_EDGE ( 'NONE', *, *, #21, .T. ) ;
#250 = ORIENTED_EDGE ( 'NONE', *, *, #32, .T. ) ;
#251 = CLOSED_SHELL ( 'NONE', ( #13, #12, #38, #41, #37, #11, #10, #26, #28, #27, #29 ) ) ;
#252 = EDGE_LOOP ( 'NONE', ( #329, #268, #270, #262 ) ) ;
#253 = EDGE_LOOP ( 'NONE', ( #257, #295 ) ) ;
#254 = LINE ( 'NONE', #59, #210 ) ;
#255 = PERSON_AND_ORGANIZATION ( #2, #315 ) ;
#256 = DATE_AND_TIME ( #346, #40 ) ;
#257 = ORIENTED_EDGE ( 'NONE', *, *, #39, .T. ) ;
#258 = ORIENTED_EDGE ( 'NONE', *, *, #15, .F. ) ;
#259 = ORIENTED_EDGE ( 'NONE', *, *, #21, .F. ) ;
#260 = ORIENTED_EDGE ( 'NONE', *, *, #32, .F. ) ;
#261 = FACE_OUTER_BOUND ( 'NONE', #342, .T. ) ;
#262 = ORIENTED_EDGE ( 'NONE', *, *, #33, .F. ) ;
#263 = VERTEX_POINT ( 'NONE', #148 ) ;
#264 = PERSON_AND_ORGANIZATION ( #2, #315 ) ;
#265 = PERSON_AND_ORGANIZATION ( #2, #315 ) ;
#266 = FACE_OUTER_BOUND ( 'NONE', #308, .T. ) ;
#267 = VERTEX_POINT ( 'NONE', #137 ) ;
#268 = ORIENTED_EDGE ( 'NONE', *, *, #30, .T. ) ;
#269 = ORIENTED_EDGE ( 'NONE', *, *, #39, .F. ) ;
#270 = ORIENTED_EDGE ( 'NONE', *, *, #17, .T. ) ;
#271 = ORIENTED_EDGE ( 'NONE', *, *, #36, .F. ) ;
#272 = ORIENTED_EDGE ( 'NONE', *, *, #20, .T. ) ;
#273 = ORIENTED_EDGE ( 'NONE', *, *, #34, .F. ) ;
#274 = ORIENTED_EDGE ( 'NONE', *, *, #25, .T. ) ;
#275 = ORIENTED_EDGE ( 'NONE', *, *, #30, .F. ) ;
#276 = PERSON_AND_ORGANIZATION ( #2, #315 ) ;
#277 = APPROVAL_DATE_TIME ( #278, #184 ) ;
#278 = DATE_AND_TIME ( #247, #8 ) ;
#279 = PERSON_AND_ORGANIZATION ( #2, #315 ) ;
#280 = CALENDAR_DATE ( 2012, 23, 8 ) ;
#281 = PERSON_AND_ORGANIZATION ( #2, #315 ) ;
#282 = COORDINATED_UNIVERSAL_TIME_OFFSET ( 9, 0, .AHEAD. ) ;
#283 = ORIENTED_EDGE ( 'NONE', *, *, #35, .T. ) ;
#284 = LINE ( 'NONE', #61, #208 ) ;
#285 = EDGE_LOOP ( 'NONE', ( #271, #260 ) ) ;
#286 = ORIENTED_EDGE ( 'NONE', *, *, #14, .T. ) ;
#287 = VERTEX_POINT ( 'NONE', #94 ) ;
#288 = ORIENTED_EDGE ( 'NONE', *, *, #34, .T. ) ;
#289 = VERTEX_POINT ( 'NONE', #51 ) ;
#290 = ORIENTED_EDGE ( 'NONE', *, *, #19, .T. ) ;
#291 = DATE_AND_TIME ( #280, #7 ) ;
#292 = FACE_OUTER_BOUND ( 'NONE', #338, .T. ) ;
#293 = VERTEX_POINT ( 'NONE', #96 ) ;
#294 = APPROVAL_PERSON_ORGANIZATION ( #330, #189, #87 ) ;
#295 = ORIENTED_EDGE ( 'NONE', *, *, #22, .T. ) ;
#296 = EDGE_LOOP ( 'NONE', ( #303, #339, #288, #354 ) ) ;
#297 = SHAPE_DEFINITION_REPRESENTATION ( #5, #43 ) ;
#298 = FACE_OUTER_BOUND ( 'NONE', #252, .T. ) ;
#299 = FACE_OUTER_BOUND ( 'NONE', #296, .T. ) ;
#300 = FACE_OUTER_BOUND ( 'NONE', #340, .T. ) ;
#301 = VERTEX_POINT ( 'NONE', #138 ) ;
#302 = DATE_AND_TIME ( #352, #6 ) ;
#303 = ORIENTED_EDGE ( 'NONE', *, *, #24, .F. ) ;
#304 = FACE_OUTER_BOUND ( 'NONE', #334, .T. ) ;
#305 = ORIENTED_EDGE ( 'NONE', *, *, #22, .F. ) ;
#306 = ORIENTED_EDGE ( 'NONE', *, *, #24, .T. ) ;
#307 = VERTEX_POINT ( 'NONE', #93 ) ;
#308 = EDGE_LOOP ( 'NONE', ( #283, #274 ) ) ;
#309 = PERSON_AND_ORGANIZATION ( #2, #315 ) ;
#310 = LINE ( 'NONE', #133, #209 ) ;
#311 = EDGE_LOOP ( 'NONE', ( #258, #275 ) ) ;
#312 = FACE_OUTER_BOUND ( 'NONE', #336, .T. ) ;
#313 = COORDINATED_UNIVERSAL_TIME_OFFSET ( 9, 0, .AHEAD. ) ;
#314 = LINE ( 'NONE', #74, #197 ) ;
#315 = ORGANIZATION ( 'UNSPECIFIED', 'UNSPECIFIED', '' ) ;
#316 = ORIENTED_EDGE ( 'NONE', *, *, #18, .F. ) ;
#317 = ORIENTED_EDGE ( 'NONE', *, *, #19, .F. ) ;
#318 = ORIENTED_EDGE ( 'NONE', *, *, #17, .F. ) ;
#319 = ORIENTED_EDGE ( 'NONE', *, *, #33, .T. ) ;
#320 = ORIENTED_EDGE ( 'NONE', *, *, #18, .T. ) ;
#321 = FACE_OUTER_BOUND ( 'NONE', #311, .T. ) ;
#322 = CALENDAR_DATE ( 2012, 23, 8 ) ;
#323 = COORDINATED_UNIVERSAL_TIME_OFFSET ( 9, 0, .AHEAD. ) ;
#324 = ORIENTED_EDGE ( 'NONE', *, *, #23, .T. ) ;
#325 = FACE_OUTER_BOUND ( 'NONE', #335, .T. ) ;
#326 = VERTEX_POINT ( 'NONE', #112 ) ;
#327 = APPROVAL_DATE_TIME ( #256, #189 ) ;
#328 = VERTEX_POINT ( 'NONE', #73 ) ;
#329 = ORIENTED_EDGE ( 'NONE', *, *, #14, .F. ) ;
#330 = PERSON_AND_ORGANIZATION ( #2, #315 ) ;
#331 = CYLINDRICAL_SURFACE ( 'NONE', #205, 10.39999999999999700 ) ;
#332 = VERTEX_POINT ( 'NONE', #162 ) ;
#333 = VERTEX_POINT ( 'NONE', #157 ) ;
#334 = EDGE_LOOP ( 'NONE', ( #350, #286, #243, #318 ) ) ;
#335 = EDGE_LOOP ( 'NONE', ( #344, #320, #317, #343 ) ) ;
#336 = EDGE_LOOP ( 'NONE', ( #305, #249, #290, #345 ) ) ;
#337 = FACE_OUTER_BOUND ( 'NONE', #253, .T. ) ;
#338 = EDGE_LOOP ( 'NONE', ( #244, #306, #250, #273 ) ) ;
#339 = ORIENTED_EDGE ( 'NONE', *, *, #35, .F. ) ;
#340 = EDGE_LOOP ( 'NONE', ( #259, #269, #324, #242 ) ) ;
#341 = CYLINDRICAL_SURFACE ( 'NONE', #192, 10.39999999999999700 ) ;
#342 = EDGE_LOOP ( 'NONE', ( #316, #319, #272, #246 ) ) ;
#343 = ORIENTED_EDGE ( 'NONE', *, *, #20, .F. ) ;
#344 = ORIENTED_EDGE ( 'NONE', *, *, #16, .T. ) ;
#345 = ORIENTED_EDGE ( 'NONE', *, *, #23, .F. ) ;
#346 = CALENDAR_DATE ( 2012, 23, 8 ) ;
#347 = LINE ( 'NONE', #77, #216 ) ;
#348 = FACE_BOUND ( 'NONE', #285, .T. ) ;
#349 = DATE_AND_TIME ( #322, #9 ) ;
#350 = ORIENTED_EDGE ( 'NONE', *, *, #15, .T. ) ;
#351 = VERTEX_POINT ( 'NONE', #100 ) ;
#352 = CALENDAR_DATE ( 2012, 23, 8 ) ;
#353 = COORDINATED_UNIVERSAL_TIME_OFFSET ( 9, 0, .AHEAD. ) ;
#354 = ORIENTED_EDGE ( 'NONE', *, *, #36, .T. ) ;
#355 = COORDINATED_UNIVERSAL_TIME_OFFSET ( 9, 0, .AHEAD. ) ;
#356 = APPROVAL_DATE_TIME ( #302, #177 ) ;
#357 = APPROVAL_PERSON_ORGANIZATION ( #264, #177, #130 ) ;
ENDSEC;
END-ISO-10303-21;
