ISO-10303-21;
HEADER;
FILE_DESCRIPTION (( 'STEP AP203' ),
    '1' );
FILE_NAME ('C-31-2-EP-UL.STEP',
    '2012-08-23T01:59:54',
    ( '11sw' ),
    ( '^LQ»¢®ïÐ' ),
    'SwSTEP 2.0',
    'SolidWorks 2011',
    '' );
FILE_SCHEMA (( 'CONFIG_CONTROL_DESIGN' ));
ENDSEC;

DATA;
#1 = PRODUCT_DEFINITION_SHAPE ( 'NONE', 'NONE',  #215 ) ;
#2 = DESIGN_CONTEXT ( 'detailed design', #149, 'design' ) ;
#3 = EDGE_CURVE ( 'NONE', #261, #346, #65, .T. ) ;
#4 = ADVANCED_FACE ( 'NONE', ( #313 ), #114, .T. ) ;
#5 = ADVANCED_FACE ( 'NONE', ( #306 ), #61, .T. ) ;
#6 = ADVANCED_FACE ( 'NONE', ( #307 ), #60, .T. ) ;
#7 = ADVANCED_FACE ( 'NONE', ( #327 ), #136, .T. ) ;
#8 = ADVANCED_FACE ( 'NONE', ( #320 ), #56, .T. ) ;
#9 = ADVANCED_FACE ( 'NONE', ( #280 ), #308, .F. ) ;
#10 = EDGE_CURVE ( 'NONE', #273, #348, #43, .T. ) ;
#11 = EDGE_CURVE ( 'NONE', #341, #346, #50, .T. ) ;
#12 = ADVANCED_FACE ( 'NONE', ( #314 ), #41, .T. ) ;
#13 = ADVANCED_FACE ( 'NONE', ( #330 ), #59, .T. ) ;
#14 = EDGE_CURVE ( 'NONE', #324, #335, #323, .T. ) ;
#15 = ADVANCED_FACE ( 'NONE', ( #326 ), #51, .T. ) ;
#16 = LOCAL_TIME ( 10, 59, 54.00000000000000000, #268 ) ;
#17 = EDGE_CURVE ( 'NONE', #250, #261, #44, .T. ) ;
#18 = ADVANCED_FACE ( 'NONE', ( #311, #310 ), #79, .T. ) ;
#19 = EDGE_CURVE ( 'NONE', #346, #341, #217, .T. ) ;
#20 = EDGE_CURVE ( 'NONE', #261, #250, #211, .T. ) ;
#21 = EDGE_CURVE ( 'NONE', #353, #251, #53, .T. ) ;
#22 = EDGE_CURVE ( 'NONE', #348, #273, #219, .T. ) ;
#23 = EDGE_CURVE ( 'NONE', #283, #335, #63, .T. ) ;
#24 = EDGE_CURVE ( 'NONE', #335, #283, #232, .T. ) ;
#25 = EDGE_CURVE ( 'NONE', #334, #283, #296, .T. ) ;
#26 = EDGE_CURVE ( 'NONE', #334, #324, #203, .T. ) ;
#27 = EDGE_CURVE ( 'NONE', #250, #341, #226, .T. ) ;
#28 = EDGE_CURVE ( 'NONE', #346, #353, #316, .T. ) ;
#29 = EDGE_CURVE ( 'NONE', #251, #353, #223, .T. ) ;
#30 = EDGE_CURVE ( 'NONE', #341, #251, #243, .T. ) ;
#31 = EDGE_CURVE ( 'NONE', #273, #251, #319, .T. ) ;
#32 = EDGE_CURVE ( 'NONE', #324, #334, #240, .T. ) ;
#33 = ADVANCED_FACE ( 'NONE', ( #315 ), #342, .F. ) ;
#34 =( GEOMETRIC_REPRESENTATION_CONTEXT ( 3 ) GLOBAL_UNCERTAINTY_ASSIGNED_CONTEXT ( ( #195 ) ) GLOBAL_UNIT_ASSIGNED_CONTEXT ( ( #106, #74, #68 ) ) REPRESENTATION_CONTEXT ( 'NONE', 'WORKASPACE' ) );
#35 = EDGE_CURVE ( 'NONE', #348, #353, #345, .T. ) ;
#36 = LOCAL_TIME ( 10, 59, 54.00000000000000000, #264 ) ;
#37 = LOCAL_TIME ( 10, 59, 54.00000000000000000, #246 ) ;
#38 = LOCAL_TIME ( 10, 59, 54.00000000000000000, #352 ) ;
#39 = LOCAL_TIME ( 10, 59, 54.00000000000000000, #331 ) ;
#40 = AXIS2_PLACEMENT_3D ( 'NONE', #154, #155, #156 ) ;
#41 = CONICAL_SURFACE ( 'NONE', #42, 16.99999999999999600, 0.3028848683749718600 ) ;
#42 = AXIS2_PLACEMENT_3D ( 'NONE', #172, #163, #166 ) ;
#43 = CIRCLE ( 'NONE', #54, 13.49999999999999800 ) ;
#44 = CIRCLE ( 'NONE', #239, 12.66202271652495900 ) ;
#45 = AXIS2_PLACEMENT_3D ( 'NONE', #180, #187, #186 ) ;
#46 = AXIS2_PLACEMENT_3D ( 'NONE', #121, #124, #126 ) ;
#47 = AXIS2_PLACEMENT_3D ( 'NONE', #128, #131, #134 ) ;
#48 = AXIS2_PLACEMENT_3D ( 'NONE', #146, #151, #152 ) ;
#49 = AXIS2_PLACEMENT_3D ( 'NONE', #105, #167, #165 ) ;
#50 = CIRCLE ( 'NONE', #57, 15.04822266161253600 ) ;
#51 = TOROIDAL_SURFACE ( 'NONE', #45, 12.66202271652496100, 2.500000000000001300 ) ;
#52 = AXIS2_PLACEMENT_3D ( 'NONE', #108, #109, #111 ) ;
#53 = CIRCLE ( 'NONE', #55, 16.99999999999999600 ) ;
#54 = AXIS2_PLACEMENT_3D ( 'NONE', #158, #159, #160 ) ;
#55 = AXIS2_PLACEMENT_3D ( 'NONE', #147, #87, #84 ) ;
#56 = CONICAL_SURFACE ( 'NONE', #48, 13.49999999999999800, 0.1161416268799902200 ) ;
#57 = AXIS2_PLACEMENT_3D ( 'NONE', #162, #164, #178 ) ;
#58 = VECTOR ( 'NONE', #168, 1000.000000000000000 ) ;
#59 = TOROIDAL_SURFACE ( 'NONE', #49, 12.66202271652496100, 2.500000000000001300 ) ;
#60 = CONICAL_SURFACE ( 'NONE', #47, 16.99999999999999600, 0.3028848683749718600 ) ;
#61 = CONICAL_SURFACE ( 'NONE', #46, 13.49999999999999800, 0.1161416268799902200 ) ;
#62 = AXIS2_PLACEMENT_3D ( 'NONE', #140, #142, #143 ) ;
#63 = CIRCLE ( 'NONE', #227, 11.99999999999999600 ) ;
#64 = AXIS2_PLACEMENT_3D ( 'NONE', #115, #118, #120 ) ;
#65 = CIRCLE ( 'NONE', #52, 2.500000000000000400 ) ;
#66 = ADVANCED_BREP_SHAPE_REPRESENTATION ( 'C-31-2-EP-UL', ( #67, #229 ), #34 ) ;
#67 = MANIFOLD_SOLID_BREP ( 'ñ]1', #297 ) ;
#68 =( NAMED_UNIT ( * ) SI_UNIT ( $, .STERADIAN. ) SOLID_ANGLE_UNIT ( ) );
#69 = CARTESIAN_POINT ( 'NONE',  ( 0.0000000000000000000, -6.245687482839872300, 0.0000000000000000000 ) ) ;
#70 = DIRECTION ( 'NONE',  ( 0.0000000000000000000, 0.0000000000000000000, 1.000000000000000000 ) ) ;
#71 = DIRECTION ( 'NONE',  ( 0.0000000000000000000, 0.0000000000000000000, 1.000000000000000000 ) ) ;
#72 = CARTESIAN_POINT ( 'NONE',  ( 0.0000000000000000000, 29.99999999999999600, 0.0000000000000000000 ) ) ;
#73 = CARTESIAN_POINT ( 'NONE',  ( 1.696763165296191200E-015, -8.000000000000007100, -12.66202271652495900 ) ) ;
#74 =( NAMED_UNIT ( * ) PLANE_ANGLE_UNIT ( ) SI_UNIT ( $, .RADIAN. ) );
#75 = PERSON_AND_ORGANIZATION_ROLE ( 'design_supplier' ) ;
#76 = DATE_TIME_ROLE ( 'creation_date' ) ;
#77 = DIRECTION ( 'NONE',  ( -0.0000000000000000000, 1.000000000000000000, 0.0000000000000000000 ) ) ;
#78 = CARTESIAN_POINT ( 'NONE',  ( 0.0000000000000000000, 29.99999999999999300, 11.99999999999999600 ) ) ;
#79 = PLANE ( 'NONE',  #210 ) ;
#80 = DIRECTION ( 'NONE',  ( 0.0000000000000000000, 0.0000000000000000000, 1.000000000000000000 ) ) ;
#81 = CARTESIAN_POINT ( 'NONE',  ( 0.0000000000000000000, -8.000000000000007100, 0.0000000000000000000 ) ) ;
#82 = DIRECTION ( 'NONE',  ( -0.0000000000000000000, 1.000000000000000000, -0.0000000000000000000 ) ) ;
#83 = CARTESIAN_POINT ( 'NONE',  ( 0.0000000000000000000, 29.99999999999999600, -13.49999999999999800 ) ) ;
#84 = DIRECTION ( 'NONE',  ( 0.0000000000000000000, 0.0000000000000000000, 1.000000000000000000 ) ) ;
#85 = DIRECTION ( 'NONE',  ( 0.0000000000000000000, 0.0000000000000000000, 1.000000000000000000 ) ) ;
#86 = DIRECTION ( 'NONE',  ( -0.0000000000000000000, 1.000000000000000000, -0.0000000000000000000 ) ) ;
#87 = DIRECTION ( 'NONE',  ( -0.0000000000000000000, 1.000000000000000000, -0.0000000000000000000 ) ) ;
#88 = DIRECTION ( 'NONE',  ( -0.0000000000000000000, 1.000000000000000000, -0.0000000000000000000 ) ) ;
#89 = DIRECTION ( 'NONE',  ( 0.0000000000000000000, 0.0000000000000000000, 1.000000000000000000 ) ) ;
#90 = CARTESIAN_POINT ( 'NONE',  ( 0.0000000000000000000, -3.469446951953614200E-015, 16.99999999999999600 ) ) ;
#91 = DIRECTION ( 'NONE',  ( -0.0000000000000000000, 1.000000000000000000, -0.0000000000000000000 ) ) ;
#92 = CARTESIAN_POINT ( 'NONE',  ( 0.0000000000000000000, -3.469446951953614200E-015, -16.99999999999999600 ) ) ;
#93 = DIRECTION ( 'NONE',  ( 0.0000000000000000000, 0.0000000000000000000, 1.000000000000000000 ) ) ;
#94 = DIRECTION ( 'NONE',  ( 0.0000000000000000000, 0.0000000000000000000, 1.000000000000000000 ) ) ;
#95 = DIRECTION ( 'NONE',  ( 0.0000000000000000000, 0.0000000000000000000, 1.000000000000000000 ) ) ;
#96 = CARTESIAN_POINT ( 'NONE',  ( 0.0000000000000000000, 26.19748375073886800, 0.0000000000000000000 ) ) ;
#97 = CARTESIAN_POINT ( 'NONE',  ( 1.469576158976823600E-015, 29.99999999999999300, -11.99999999999999600 ) ) ;
#98 = PERSON_AND_ORGANIZATION_ROLE ( 'classification_officer' ) ;
#99 = CARTESIAN_POINT ( 'NONE',  ( 0.0000000000000000000, 29.99999999999999300, 11.99999999999999600 ) ) ;
#100 = DIRECTION ( 'NONE',  ( -0.0000000000000000000, 1.000000000000000000, -0.0000000000000000000 ) ) ;
#101 = CARTESIAN_POINT ( 'NONE',  ( 0.0000000000000000000, 26.19748375073886800, 11.99999999999999600 ) ) ;
#102 = CARTESIAN_POINT ( 'NONE',  ( 0.0000000000000000000, 29.99999999999999300, 0.0000000000000000000 ) ) ;
#103 = CARTESIAN_POINT ( 'NONE',  ( 1.962387665045273100E-015, -6.245687482839872300, -15.04822266161253600 ) ) ;
#104 = APPLICATION_CONTEXT ( 'configuration controlled 3d designs of mechanical parts and assemblies' ) ;
#105 = CARTESIAN_POINT ( 'NONE',  ( 0.0000000000000000000, -5.500000000000003600, 0.0000000000000000000 ) ) ;
#106 =( LENGTH_UNIT ( ) NAMED_UNIT ( * ) SI_UNIT ( .MILLI., .METRE. ) );
#107 = SECURITY_CLASSIFICATION_LEVEL ( 'unclassified' ) ;
#108 = CARTESIAN_POINT ( 'NONE',  ( 1.550650559052336600E-015, -5.500000000000003600, -12.66202271652496100 ) ) ;
#109 = DIRECTION ( 'NONE',  ( 1.000000000000000000, 0.0000000000000000000, 1.224646799147353200E-016 ) ) ;
#110 = CARTESIAN_POINT ( 'NONE',  ( 0.0000000000000000000, 0.0000000000000000000, 0.0000000000000000000 ) ) ;
#111 = DIRECTION ( 'NONE',  ( 1.224646799147353500E-016, 0.0000000000000000000, -1.000000000000000000 ) ) ;
#112 = DATE_TIME_ROLE ( 'classification_date' ) ;
#113 = CARTESIAN_POINT ( 'NONE',  ( 1.867586368699713400E-015, 29.99999999999999600, 13.49999999999999800 ) ) ;
#114 = PLANE ( 'NONE',  #64 ) ;
#115 = CARTESIAN_POINT ( 'NONE',  ( 0.0000000000000000000, -8.000000000000003600, 12.66202271652495900 ) ) ;
#116 = DIRECTION ( 'NONE',  ( 0.0000000000000000000, 0.0000000000000000000, 1.000000000000000000 ) ) ;
#117 = DIRECTION ( 'NONE',  ( -0.0000000000000000000, 1.000000000000000000, -0.0000000000000000000 ) ) ;
#118 = DIRECTION ( 'NONE',  ( 0.0000000000000000000, -1.000000000000000000, 0.0000000000000000000 ) ) ;
#119 = CARTESIAN_POINT ( 'NONE',  ( 0.0000000000000000000, 29.99999999999999300, 0.0000000000000000000 ) ) ;
#120 = DIRECTION ( 'NONE',  ( 0.0000000000000000000, -0.0000000000000000000, -1.000000000000000000 ) ) ;
#121 = CARTESIAN_POINT ( 'NONE',  ( 0.0000000000000000000, 29.99999999999999600, 0.0000000000000000000 ) ) ;
#122 = DIRECTION ( 'NONE',  ( -0.0000000000000000000, 1.000000000000000000, -0.0000000000000000000 ) ) ;
#123 = CARTESIAN_POINT ( 'NONE',  ( 0.0000000000000000000, 0.0000000000000000000, 0.0000000000000000000 ) ) ;
#124 = DIRECTION ( 'NONE',  ( 0.0000000000000000000, -1.000000000000000000, 0.0000000000000000000 ) ) ;
#125 = CARTESIAN_POINT ( 'NONE',  ( 1.469576158976823600E-015, 0.0000000000000000000, -11.99999999999999600 ) ) ;
#126 = DIRECTION ( 'NONE',  ( 0.0000000000000000000, 0.0000000000000000000, -1.000000000000000000 ) ) ;
#127 = APPROVAL_ROLE ( '' ) ;
#128 = CARTESIAN_POINT ( 'NONE',  ( 0.0000000000000000000, -3.469446951953614200E-015, 0.0000000000000000000 ) ) ;
#129 = APPLICATION_PROTOCOL_DEFINITION ( 'international standard', 'config_control_design', 1994, #104 ) ;
#130 = DIRECTION ( 'NONE',  ( 0.0000000000000000000, 0.0000000000000000000, 1.000000000000000000 ) ) ;
#131 = DIRECTION ( 'NONE',  ( -0.0000000000000000000, 1.000000000000000000, -0.0000000000000000000 ) ) ;
#132 = DIRECTION ( 'NONE',  ( 3.652815156096366200E-017, 0.9544799780350297100, -0.2982749931359472400 ) ) ;
#133 = PERSON_AND_ORGANIZATION_ROLE ( 'creator' ) ;
#134 = DIRECTION ( 'NONE',  ( 0.0000000000000000000, 0.0000000000000000000, 1.000000000000000000 ) ) ;
#135 = CARTESIAN_POINT ( 'NONE',  ( 0.0000000000000000000, -6.245687482839872300, 15.04822266161253600 ) ) ;
#136 = PLANE ( 'NONE',  #62 ) ;
#137 = APPLICATION_PROTOCOL_DEFINITION ( 'international standard', 'config_control_design', 1994, #149 ) ;
#138 = DIRECTION ( 'NONE',  ( 0.0000000000000000000, 0.0000000000000000000, 1.000000000000000000 ) ) ;
#139 = DIRECTION ( 'NONE',  ( 0.0000000000000000000, 0.9544799780350297100, 0.2982749931359472400 ) ) ;
#140 = CARTESIAN_POINT ( 'NONE',  ( 0.0000000000000000000, -7.347880794884118800E-016, 0.0000000000000000000 ) ) ;
#141 = CARTESIAN_POINT ( 'NONE',  ( 0.0000000000000000000, -8.000000000000007100, 12.66202271652495900 ) ) ;
#142 = DIRECTION ( 'NONE',  ( -0.0000000000000000000, 1.000000000000000000, 0.0000000000000000000 ) ) ;
#143 = DIRECTION ( 'NONE',  ( 0.0000000000000000000, 0.0000000000000000000, 1.000000000000000000 ) ) ;
#144 = CARTESIAN_POINT ( 'NONE',  ( 0.0000000000000000000, -8.000000000000007100, 0.0000000000000000000 ) ) ;
#145 = APPROVAL_STATUS ( 'not_yet_approved' ) ;
#146 = CARTESIAN_POINT ( 'NONE',  ( 0.0000000000000000000, 29.99999999999999600, 0.0000000000000000000 ) ) ;
#147 = CARTESIAN_POINT ( 'NONE',  ( 0.0000000000000000000, -3.469446951953614200E-015, 0.0000000000000000000 ) ) ;
#148 = APPROVAL_STATUS ( 'not_yet_approved' ) ;
#149 = APPLICATION_CONTEXT ( 'configuration controlled 3d designs of mechanical parts and assemblies' ) ;
#150 = DIRECTION ( 'NONE',  ( -1.000000000000000000, 0.0000000000000000000, 0.0000000000000000000 ) ) ;
#151 = DIRECTION ( 'NONE',  ( 0.0000000000000000000, -1.000000000000000000, 0.0000000000000000000 ) ) ;
#152 = DIRECTION ( 'NONE',  ( 0.0000000000000000000, 0.0000000000000000000, -1.000000000000000000 ) ) ;
#153 = CARTESIAN_POINT ( 'NONE',  ( 2.081899558550499900E-015, -3.469446951953614200E-015, 16.99999999999999600 ) ) ;
#154 = CARTESIAN_POINT ( 'NONE',  ( 0.0000000000000000000, 26.19748375073886800, 0.0000000000000000000 ) ) ;
#155 = DIRECTION ( 'NONE',  ( -0.0000000000000000000, 1.000000000000000000, -0.0000000000000000000 ) ) ;
#156 = DIRECTION ( 'NONE',  ( 0.0000000000000000000, 0.0000000000000000000, 1.000000000000000000 ) ) ;
#157 = DIRECTION ( 'NONE',  ( -0.0000000000000000000, 1.000000000000000000, -0.0000000000000000000 ) ) ;
#158 = CARTESIAN_POINT ( 'NONE',  ( 0.0000000000000000000, 29.99999999999999600, 0.0000000000000000000 ) ) ;
#159 = DIRECTION ( 'NONE',  ( -0.0000000000000000000, 1.000000000000000000, -0.0000000000000000000 ) ) ;
#160 = DIRECTION ( 'NONE',  ( 0.0000000000000000000, 0.0000000000000000000, 1.000000000000000000 ) ) ;
#161 = APPROVAL_STATUS ( 'not_yet_approved' ) ;
#162 = CARTESIAN_POINT ( 'NONE',  ( 0.0000000000000000000, -6.245687482839872300, 0.0000000000000000000 ) ) ;
#163 = DIRECTION ( 'NONE',  ( -0.0000000000000000000, 1.000000000000000000, -0.0000000000000000000 ) ) ;
#164 = DIRECTION ( 'NONE',  ( -0.0000000000000000000, 1.000000000000000000, -0.0000000000000000000 ) ) ;
#165 = DIRECTION ( 'NONE',  ( 0.0000000000000000000, 0.0000000000000000000, 1.000000000000000000 ) ) ;
#166 = DIRECTION ( 'NONE',  ( 0.0000000000000000000, 0.0000000000000000000, 1.000000000000000000 ) ) ;
#167 = DIRECTION ( 'NONE',  ( -0.0000000000000000000, 1.000000000000000000, -0.0000000000000000000 ) ) ;
#168 = DIRECTION ( 'NONE',  ( -0.0000000000000000000, 1.000000000000000000, -0.0000000000000000000 ) ) ;
#169 = DIRECTION ( 'NONE',  ( 1.419129277993284600E-017, -0.9932631390872428400, 0.1158806995601783200 ) ) ;
#170 = DIRECTION ( 'NONE',  ( -0.0000000000000000000, 1.000000000000000000, -0.0000000000000000000 ) ) ;
#171 = DIRECTION ( 'NONE',  ( 0.0000000000000000000, 0.0000000000000000000, 1.000000000000000000 ) ) ;
#172 = CARTESIAN_POINT ( 'NONE',  ( 0.0000000000000000000, -3.469446951953614200E-015, 0.0000000000000000000 ) ) ;
#173 = APPROVAL_ROLE ( '' ) ;
#174 = MECHANICAL_CONTEXT ( 'NONE', #104, 'mechanical' ) ;
#175 = DIRECTION ( 'NONE',  ( 0.0000000000000000000, -0.9932631390872428400, -0.1158806995601783200 ) ) ;
#176 = CARTESIAN_POINT ( 'NONE',  ( 0.0000000000000000000, 0.0000000000000000000, 0.0000000000000000000 ) ) ;
#177 = CARTESIAN_POINT ( 'NONE',  ( 0.0000000000000000000, -5.500000000000003600, 12.66202271652496100 ) ) ;
#178 = DIRECTION ( 'NONE',  ( 0.0000000000000000000, 0.0000000000000000000, 1.000000000000000000 ) ) ;
#179 = CARTESIAN_POINT ( 'NONE',  ( 0.0000000000000000000, 29.99999999999999600, -13.49999999999999800 ) ) ;
#180 = CARTESIAN_POINT ( 'NONE',  ( 0.0000000000000000000, -5.500000000000003600, 0.0000000000000000000 ) ) ;
#181 = CARTESIAN_POINT ( 'NONE',  ( 1.469576158976823600E-015, 26.19748375073886800, -11.99999999999999600 ) ) ;
#182 = DIRECTION ( 'NONE',  ( 0.0000000000000000000, 0.0000000000000000000, 1.000000000000000000 ) ) ;
#183 = PERSON_AND_ORGANIZATION_ROLE ( 'design_owner' ) ;
#184 = CARTESIAN_POINT ( 'NONE',  ( 1.653273178848926700E-015, 29.99999999999999600, 13.49999999999999800 ) ) ;
#185 = CARTESIAN_POINT ( 'NONE',  ( 0.0000000000000000000, 0.0000000000000000000, 11.99999999999999600 ) ) ;
#186 = DIRECTION ( 'NONE',  ( 0.0000000000000000000, 0.0000000000000000000, 1.000000000000000000 ) ) ;
#187 = DIRECTION ( 'NONE',  ( -0.0000000000000000000, 1.000000000000000000, -0.0000000000000000000 ) ) ;
#188 = DIRECTION ( 'NONE',  ( -0.0000000000000000000, 1.000000000000000000, -0.0000000000000000000 ) ) ;
#189 = DIRECTION ( 'NONE',  ( 1.000000000000000000, 0.0000000000000000000, 0.0000000000000000000 ) ) ;
#190 = CARTESIAN_POINT ( 'NONE',  ( 0.0000000000000000000, -3.469446951953614200E-015, 0.0000000000000000000 ) ) ;
#191 = DIRECTION ( 'NONE',  ( -0.0000000000000000000, 1.000000000000000000, -0.0000000000000000000 ) ) ;
#192 = CARTESIAN_POINT ( 'NONE',  ( 2.081899558550499900E-015, -3.469446951953614200E-015, -16.99999999999999600 ) ) ;
#193 = APPROVAL_ROLE ( '' ) ;
#194 = PERSON_AND_ORGANIZATION_ROLE ( 'creator' ) ;
#195 = UNCERTAINTY_MEASURE_WITH_UNIT (LENGTH_MEASURE( 1.000000000000000100E-005 ), #106, 'distance_accuracy_value', 'NONE');
#196 = PRODUCT ( 'C-31-2-EP-UL', 'C-31-2-EP-UL', '', ( #174 ) ) ;
#197 = PERSON ( 'UNSPECIFIED', 'UNSPECIFIED', 'UNSPECIFIED', ('UNSPECIFIED'), ('UNSPECIFIED'), ('UNSPECIFIED') ) ;
#198 = VECTOR ( 'NONE', #169, 1000.000000000000100 ) ;
#199 = AXIS2_PLACEMENT_3D ( 'NONE', #144, #117, #93 ) ;
#200 = AXIS2_PLACEMENT_3D ( 'NONE', #110, #100, #89 ) ;
#201 = PRODUCT_DEFINITION_FORMATION_WITH_SPECIFIED_SOURCE ( 'ANY', '', #196, .NOT_KNOWN. ) ;
#202 = AXIS2_PLACEMENT_3D ( 'NONE', #69, #91, #171 ) ;
#203 = CIRCLE ( 'NONE', #200, 11.99999999999999600 ) ;
#204 = VECTOR ( 'NONE', #139, 999.9999999999998900 ) ;
#205 = APPROVAL ( #145, 'UNSPECIFIED' ) ;
#206 = CC_DESIGN_PERSON_AND_ORGANIZATION_ASSIGNMENT ( #329, #98, ( #235 ) ) ;
#207 = CC_DESIGN_APPROVAL ( #241, ( #235 ) ) ;
#208 = CC_DESIGN_DATE_AND_TIME_ASSIGNMENT ( #344, #76, ( #215 ) ) ;
#209 = CC_DESIGN_PERSON_AND_ORGANIZATION_ASSIGNMENT ( #312, #194, ( #201 ) ) ;
#210 = AXIS2_PLACEMENT_3D ( 'NONE', #78, #77, #71 ) ;
#211 = CIRCLE ( 'NONE', #199, 12.66202271652495900 ) ;
#212 = AXIS2_PLACEMENT_3D ( 'NONE', #177, #150, #94 ) ;
#213 = AXIS2_PLACEMENT_3D ( 'NONE', #102, #86, #95 ) ;
#214 = CC_DESIGN_PERSON_AND_ORGANIZATION_ASSIGNMENT ( #265, #183, ( #196 ) ) ;
#215 = PRODUCT_DEFINITION ( 'UNKNOWN', '', #201, #2 ) ;
#216 = CC_DESIGN_DATE_AND_TIME_ASSIGNMENT ( #256, #112, ( #235 ) ) ;
#217 = CIRCLE ( 'NONE', #202, 15.04822266161253600 ) ;
#218 = AXIS2_PLACEMENT_3D ( 'NONE', #72, #170, #130 ) ;
#219 = CIRCLE ( 'NONE', #218, 13.49999999999999800 ) ;
#220 = AXIS2_PLACEMENT_3D ( 'NONE', #176, #122, #138 ) ;
#221 = AXIS2_PLACEMENT_3D ( 'NONE', #190, #191, #85 ) ;
#222 = VECTOR ( 'NONE', #175, 1000.000000000000100 ) ;
#223 = CIRCLE ( 'NONE', #221, 16.99999999999999600 ) ;
#224 = VECTOR ( 'NONE', #132, 999.9999999999998900 ) ;
#225 = APPROVAL ( #148, 'UNSPECIFIED' ) ;
#226 = CIRCLE ( 'NONE', #212, 2.500000000000000400 ) ;
#227 = AXIS2_PLACEMENT_3D ( 'NONE', #119, #88, #70 ) ;
#228 = AXIS2_PLACEMENT_3D ( 'NONE', #96, #157, #116 ) ;
#229 = AXIS2_PLACEMENT_3D ( 'NONE', #123, #182, #189 ) ;
#230 = CC_DESIGN_APPROVAL ( #205, ( #215 ) ) ;
#231 = CC_DESIGN_APPROVAL ( #225, ( #201 ) ) ;
#232 = CIRCLE ( 'NONE', #213, 11.99999999999999600 ) ;
#233 = PRODUCT_RELATED_PRODUCT_CATEGORY ( 'detail', '', ( #196 ) ) ;
#234 = CC_DESIGN_SECURITY_CLASSIFICATION ( #235, ( #201 ) ) ;
#235 = SECURITY_CLASSIFICATION ( '', '', #107 ) ;
#236 = VECTOR ( 'NONE', #188, 1000.000000000000000 ) ;
#237 = CC_DESIGN_PERSON_AND_ORGANIZATION_ASSIGNMENT ( #332, #75, ( #201 ) ) ;
#238 = CC_DESIGN_PERSON_AND_ORGANIZATION_ASSIGNMENT ( #317, #133, ( #215 ) ) ;
#239 = AXIS2_PLACEMENT_3D ( 'NONE', #81, #82, #80 ) ;
#240 = CIRCLE ( 'NONE', #220, 11.99999999999999600 ) ;
#241 = APPROVAL ( #161, 'UNSPECIFIED' ) ;
#242 = DATE_AND_TIME ( #262, #38 ) ;
#243 = LINE ( 'NONE', #90, #204 ) ;
#244 = ORIENTED_EDGE ( 'NONE', *, *, #21, .T. ) ;
#245 = APPROVAL_PERSON_ORGANIZATION ( #318, #225, #127 ) ;
#246 = COORDINATED_UNIVERSAL_TIME_OFFSET ( 9, 0, .AHEAD. ) ;
#247 = ORIENTED_EDGE ( 'NONE', *, *, #10, .T. ) ;
#248 = ORIENTED_EDGE ( 'NONE', *, *, #23, .T. ) ;
#249 = ORIENTED_EDGE ( 'NONE', *, *, #25, .T. ) ;
#250 = VERTEX_POINT ( 'NONE', #141 ) ;
#251 = VERTEX_POINT ( 'NONE', #153 ) ;
#252 = ORIENTED_EDGE ( 'NONE', *, *, #24, .T. ) ;
#253 = ORIENTED_EDGE ( 'NONE', *, *, #26, .F. ) ;
#254 = ORIENTED_EDGE ( 'NONE', *, *, #14, .F. ) ;
#255 = PERSON_AND_ORGANIZATION ( #197, #333 ) ;
#256 = DATE_AND_TIME ( #325, #39 ) ;
#257 = ORIENTED_EDGE ( 'NONE', *, *, #22, .T. ) ;
#258 = CALENDAR_DATE ( 2012, 23, 8 ) ;
#259 = ORIENTED_EDGE ( 'NONE', *, *, #25, .F. ) ;
#260 = ORIENTED_EDGE ( 'NONE', *, *, #14, .T. ) ;
#261 = VERTEX_POINT ( 'NONE', #73 ) ;
#262 = CALENDAR_DATE ( 2012, 23, 8 ) ;
#263 = PERSON_AND_ORGANIZATION ( #197, #333 ) ;
#264 = COORDINATED_UNIVERSAL_TIME_OFFSET ( 9, 0, .AHEAD. ) ;
#265 = PERSON_AND_ORGANIZATION ( #197, #333 ) ;
#266 = ORIENTED_EDGE ( 'NONE', *, *, #28, .T. ) ;
#267 = ORIENTED_EDGE ( 'NONE', *, *, #29, .F. ) ;
#268 = COORDINATED_UNIVERSAL_TIME_OFFSET ( 9, 0, .AHEAD. ) ;
#269 = ORIENTED_EDGE ( 'NONE', *, *, #28, .F. ) ;
#270 = ORIENTED_EDGE ( 'NONE', *, *, #22, .F. ) ;
#271 = ORIENTED_EDGE ( 'NONE', *, *, #32, .F. ) ;
#272 = APPROVAL_PERSON_ORGANIZATION ( #255, #241, #173 ) ;
#273 = VERTEX_POINT ( 'NONE', #113 ) ;
#274 = ORIENTED_EDGE ( 'NONE', *, *, #30, .F. ) ;
#275 = ORIENTED_EDGE ( 'NONE', *, *, #10, .F. ) ;
#276 = ORIENTED_EDGE ( 'NONE', *, *, #29, .T. ) ;
#277 = ORIENTED_EDGE ( 'NONE', *, *, #24, .F. ) ;
#278 = ORIENTED_EDGE ( 'NONE', *, *, #35, .F. ) ;
#279 = ORIENTED_EDGE ( 'NONE', *, *, #31, .T. ) ;
#280 = FACE_OUTER_BOUND ( 'NONE', #303, .T. ) ;
#281 = DATE_AND_TIME ( #298, #36 ) ;
#282 = ORIENTED_EDGE ( 'NONE', *, *, #17, .T. ) ;
#283 = VERTEX_POINT ( 'NONE', #99 ) ;
#284 = ORIENTED_EDGE ( 'NONE', *, *, #3, .T. ) ;
#285 = ORIENTED_EDGE ( 'NONE', *, *, #27, .F. ) ;
#286 = ORIENTED_EDGE ( 'NONE', *, *, #11, .T. ) ;
#287 = ORIENTED_EDGE ( 'NONE', *, *, #11, .F. ) ;
#288 = EDGE_LOOP ( 'NONE', ( #294, #339, #357, #347 ) ) ;
#289 = EDGE_LOOP ( 'NONE', ( #269, #343, #337, #350 ) ) ;
#290 = EDGE_LOOP ( 'NONE', ( #301, #277 ) ) ;
#291 = EDGE_LOOP ( 'NONE', ( #271, #260, #252, #259 ) ) ;
#292 = EDGE_LOOP ( 'NONE', ( #282, #284, #287, #285 ) ) ;
#293 = EDGE_LOOP ( 'NONE', ( #351, #340 ) ) ;
#294 = ORIENTED_EDGE ( 'NONE', *, *, #3, .F. ) ;
#295 = EDGE_LOOP ( 'NONE', ( #275, #279, #276, #278 ) ) ;
#296 = LINE ( 'NONE', #101, #236 ) ;
#297 = CLOSED_SHELL ( 'NONE', ( #13, #6, #8, #33, #9, #18, #5, #12, #15, #4, #7 ) ) ;
#298 = CALENDAR_DATE ( 2012, 23, 8 ) ;
#299 = EDGE_LOOP ( 'NONE', ( #300, #354 ) ) ;
#300 = ORIENTED_EDGE ( 'NONE', *, *, #26, .T. ) ;
#301 = ORIENTED_EDGE ( 'NONE', *, *, #23, .F. ) ;
#302 = EDGE_LOOP ( 'NONE', ( #309, #270, #349, #244 ) ) ;
#303 = EDGE_LOOP ( 'NONE', ( #254, #253, #249, #248 ) ) ;
#304 = EDGE_LOOP ( 'NONE', ( #286, #266, #267, #274 ) ) ;
#305 = EDGE_LOOP ( 'NONE', ( #257, #247 ) ) ;
#306 = FACE_OUTER_BOUND ( 'NONE', #302, .T. ) ;
#307 = FACE_OUTER_BOUND ( 'NONE', #304, .T. ) ;
#308 = CYLINDRICAL_SURFACE ( 'NONE', #40, 11.99999999999999600 ) ;
#309 = ORIENTED_EDGE ( 'NONE', *, *, #31, .F. ) ;
#310 = FACE_BOUND ( 'NONE', #290, .T. ) ;
#311 = FACE_OUTER_BOUND ( 'NONE', #305, .T. ) ;
#312 = PERSON_AND_ORGANIZATION ( #197, #333 ) ;
#313 = FACE_OUTER_BOUND ( 'NONE', #293, .T. ) ;
#314 = FACE_OUTER_BOUND ( 'NONE', #289, .T. ) ;
#315 = FACE_OUTER_BOUND ( 'NONE', #291, .T. ) ;
#316 = LINE ( 'NONE', #192, #224 ) ;
#317 = PERSON_AND_ORGANIZATION ( #197, #333 ) ;
#318 = PERSON_AND_ORGANIZATION ( #197, #333 ) ;
#319 = LINE ( 'NONE', #184, #198 ) ;
#320 = FACE_OUTER_BOUND ( 'NONE', #295, .T. ) ;
#321 = DATE_AND_TIME ( #356, #16 ) ;
#322 = SHAPE_DEFINITION_REPRESENTATION ( #1, #66 ) ;
#323 = LINE ( 'NONE', #181, #58 ) ;
#324 = VERTEX_POINT ( 'NONE', #125 ) ;
#325 = CALENDAR_DATE ( 2012, 23, 8 ) ;
#326 = FACE_OUTER_BOUND ( 'NONE', #288, .T. ) ;
#327 = FACE_OUTER_BOUND ( 'NONE', #299, .T. ) ;
#328 = APPROVAL_DATE_TIME ( #321, #205 ) ;
#329 = PERSON_AND_ORGANIZATION ( #197, #333 ) ;
#330 = FACE_OUTER_BOUND ( 'NONE', #292, .T. ) ;
#331 = COORDINATED_UNIVERSAL_TIME_OFFSET ( 9, 0, .AHEAD. ) ;
#332 = PERSON_AND_ORGANIZATION ( #197, #333 ) ;
#333 = ORGANIZATION ( 'UNSPECIFIED', 'UNSPECIFIED', '' ) ;
#334 = VERTEX_POINT ( 'NONE', #185 ) ;
#335 = VERTEX_POINT ( 'NONE', #97 ) ;
#336 = APPROVAL_DATE_TIME ( #281, #241 ) ;
#337 = ORIENTED_EDGE ( 'NONE', *, *, #30, .T. ) ;
#338 = APPROVAL_PERSON_ORGANIZATION ( #263, #205, #193 ) ;
#339 = ORIENTED_EDGE ( 'NONE', *, *, #20, .T. ) ;
#340 = ORIENTED_EDGE ( 'NONE', *, *, #20, .F. ) ;
#341 = VERTEX_POINT ( 'NONE', #135 ) ;
#342 = CYLINDRICAL_SURFACE ( 'NONE', #228, 11.99999999999999600 ) ;
#343 = ORIENTED_EDGE ( 'NONE', *, *, #19, .T. ) ;
#344 = DATE_AND_TIME ( #258, #37 ) ;
#345 = LINE ( 'NONE', #83, #222 ) ;
#346 = VERTEX_POINT ( 'NONE', #103 ) ;
#347 = ORIENTED_EDGE ( 'NONE', *, *, #19, .F. ) ;
#348 = VERTEX_POINT ( 'NONE', #179 ) ;
#349 = ORIENTED_EDGE ( 'NONE', *, *, #35, .T. ) ;
#350 = ORIENTED_EDGE ( 'NONE', *, *, #21, .F. ) ;
#351 = ORIENTED_EDGE ( 'NONE', *, *, #17, .F. ) ;
#352 = COORDINATED_UNIVERSAL_TIME_OFFSET ( 9, 0, .AHEAD. ) ;
#353 = VERTEX_POINT ( 'NONE', #92 ) ;
#354 = ORIENTED_EDGE ( 'NONE', *, *, #32, .T. ) ;
#355 = APPROVAL_DATE_TIME ( #242, #225 ) ;
#356 = CALENDAR_DATE ( 2012, 23, 8 ) ;
#357 = ORIENTED_EDGE ( 'NONE', *, *, #27, .T. ) ;
ENDSEC;
END-ISO-10303-21;
