ISO-10303-21;
HEADER;
FILE_DESCRIPTION (( 'STEP AP203' ),
    '1' );
FILE_NAME ('C-31-1-EP-UL.STEP',
    '2012-08-23T01:33:26',
    ( '11sw' ),
    ( '^LQ»¢®ïÐ' ),
    'SwSTEP 2.0',
    'SolidWorks 2011',
    '' );
FILE_SCHEMA (( 'CONFIG_CONTROL_DESIGN' ));
ENDSEC;

DATA;
#1 = UNCERTAINTY_MEASURE_WITH_UNIT (LENGTH_MEASURE( 1.000000000000000100E-005 ), #71, 'distance_accuracy_value', 'NONE');
#2 = PERSON ( 'UNSPECIFIED', 'UNSPECIFIED', 'UNSPECIFIED', ('UNSPECIFIED'), ('UNSPECIFIED'), ('UNSPECIFIED') ) ;
#3 = PRODUCT ( 'C-31-1-EP-UL', 'C-31-1-EP-UL', '', ( #113 ) ) ;
#4 = PRODUCT_DEFINITION_SHAPE ( 'NONE', 'NONE',  #207 ) ;
#5 = ADVANCED_FACE ( 'NONE', ( #337 ), #191, .T. ) ;
#6 = ADVANCED_FACE ( 'NONE', ( #322 ), #124, .T. ) ;
#7 = ADVANCED_FACE ( 'NONE', ( #323, #254 ), #81, .T. ) ;
#8 = ADVANCED_FACE ( 'NONE', ( #293 ), #205, .T. ) ;
#9 = ADVANCED_FACE ( 'NONE', ( #326 ), #196, .T. ) ;
#10 = ADVANCED_FACE ( 'NONE', ( #327 ), #282, .F. ) ;
#11 = ADVANCED_FACE ( 'NONE', ( #345 ), #237, .T. ) ;
#12 = EDGE_CURVE ( 'NONE', #279, #288, #187, .T. ) ;
#13 = ADVANCED_FACE ( 'NONE', ( #289 ), #235, .T. ) ;
#14 = ADVANCED_FACE ( 'NONE', ( #321 ), #203, .T. ) ;
#15 = ADVANCED_FACE ( 'NONE', ( #247 ), #292, .F. ) ;
#16 = ADVANCED_FACE ( 'NONE', ( #248 ), #78, .T. ) ;
#17 =( GEOMETRIC_REPRESENTATION_CONTEXT ( 3 ) GLOBAL_UNCERTAINTY_ASSIGNED_CONTEXT ( ( #1 ) ) GLOBAL_UNIT_ASSIGNED_CONTEXT ( ( #71, #115, #110 ) ) REPRESENTATION_CONTEXT ( 'NONE', 'WORKASPACE' ) );
#18 = EDGE_CURVE ( 'NONE', #271, #290, #217, .T. ) ;
#19 = EDGE_CURVE ( 'NONE', #290, #271, #202, .T. ) ;
#20 = EDGE_CURVE ( 'NONE', #285, #274, #185, .T. ) ;
#21 = EDGE_CURVE ( 'NONE', #268, #269, #234, .T. ) ;
#22 = EDGE_CURVE ( 'NONE', #288, #279, #193, .T. ) ;
#23 = EDGE_CURVE ( 'NONE', #288, #268, #253, .T. ) ;
#24 = EDGE_CURVE ( 'NONE', #286, #266, #223, .T. ) ;
#25 = EDGE_CURVE ( 'NONE', #272, #266, #260, .T. ) ;
#26 = EDGE_CURVE ( 'NONE', #272, #294, #206, .T. ) ;
#27 = EDGE_CURVE ( 'NONE', #279, #269, #317, .T. ) ;
#28 = EDGE_CURVE ( 'NONE', #266, #286, #229, .T. ) ;
#29 = EDGE_CURVE ( 'NONE', #294, #286, #344, .T. ) ;
#30 = EDGE_CURVE ( 'NONE', #294, #272, #231, .T. ) ;
#31 = EDGE_CURVE ( 'NONE', #290, #274, #219, .T. ) ;
#32 = EDGE_CURVE ( 'NONE', #274, #285, #200, .T. ) ;
#33 = EDGE_CURVE ( 'NONE', #271, #285, #209, .T. ) ;
#34 = EDGE_CURVE ( 'NONE', #285, #268, #251, .T. ) ;
#35 = EDGE_CURVE ( 'NONE', #269, #268, #228, .T. ) ;
#36 = EDGE_CURVE ( 'NONE', #274, #269, #320, .T. ) ;
#37 = LOCAL_TIME ( 10, 33, 26.00000000000000000, #257 ) ;
#38 = LOCAL_TIME ( 10, 33, 26.00000000000000000, #246 ) ;
#39 = LOCAL_TIME ( 10, 33, 26.00000000000000000, #270 ) ;
#40 = LOCAL_TIME ( 10, 33, 26.00000000000000000, #324 ) ;
#41 = LOCAL_TIME ( 10, 33, 26.00000000000000000, #308 ) ;
#42 = CC_DESIGN_SECURITY_CLASSIFICATION ( #240, ( #190 ) ) ;
#43 = CC_DESIGN_APPROVAL ( #44, ( #240 ) ) ;
#44 = APPROVAL ( #55, 'UNSPECIFIED' ) ;
#45 = PRODUCT_RELATED_PRODUCT_CATEGORY ( 'detail', '', ( #3 ) ) ;
#46 = ADVANCED_BREP_SHAPE_REPRESENTATION ( 'C-31-1-EP-UL', ( #47, #178 ), #17 ) ;
#47 = MANIFOLD_SOLID_BREP ( 'ñ]1', #250 ) ;
#48 = CARTESIAN_POINT ( 'NONE',  ( 0.0000000000000000000, 26.19748375073886800, 14.99999999999999600 ) ) ;
#49 = CARTESIAN_POINT ( 'NONE',  ( 0.0000000000000000000, 19.99999999999999600, -18.00000000000000000 ) ) ;
#50 = CARTESIAN_POINT ( 'NONE',  ( 0.0000000000000000000, -4.499999999999999100, 15.73820200940741300 ) ) ;
#51 = DIRECTION ( 'NONE',  ( -0.0000000000000000000, 1.000000000000000000, -0.0000000000000000000 ) ) ;
#52 = CARTESIAN_POINT ( 'NONE',  ( 0.0000000000000000000, -6.999999999999999100, 0.0000000000000000000 ) ) ;
#53 = CARTESIAN_POINT ( 'NONE',  ( 2.326828918379970600E-015, 19.99999999999999600, 18.00000000000000000 ) ) ;
#54 = CARTESIAN_POINT ( 'NONE',  ( 0.0000000000000000000, -9.184547653667827500E-016, 0.0000000000000000000 ) ) ;
#55 = APPROVAL_STATUS ( 'not_yet_approved' ) ;
#56 = CARTESIAN_POINT ( 'NONE',  ( 1.836970198721029200E-015, -3.469446951953614200E-015, -14.99999999999999600 ) ) ;
#57 = CARTESIAN_POINT ( 'NONE',  ( 0.0000000000000000000, 19.99999999999999600, 0.0000000000000000000 ) ) ;
#58 = DIRECTION ( 'NONE',  ( 0.0000000000000000000, 0.0000000000000000000, 1.000000000000000000 ) ) ;
#59 = DIRECTION ( 'NONE',  ( -0.0000000000000000000, 1.000000000000000000, -0.0000000000000000000 ) ) ;
#60 = DIRECTION ( 'NONE',  ( 0.0000000000000000000, 0.0000000000000000000, 1.000000000000000000 ) ) ;
#61 = DIRECTION ( 'NONE',  ( 0.0000000000000000000, 0.0000000000000000000, 1.000000000000000000 ) ) ;
#62 = CARTESIAN_POINT ( 'NONE',  ( 2.204364238465235400E-015, 19.99999999999999600, 18.00000000000000000 ) ) ;
#63 = CARTESIAN_POINT ( 'NONE',  ( 0.0000000000000000000, -3.469446951953614200E-015, 19.99999999999999600 ) ) ;
#64 = DIRECTION ( 'NONE',  ( 0.0000000000000000000, 0.9417419115948377800, 0.3363363969981551000 ) ) ;
#65 = CARTESIAN_POINT ( 'NONE',  ( 0.0000000000000000000, -3.469446951953614200E-015, -19.99999999999999600 ) ) ;
#66 = DIRECTION ( 'NONE',  ( 0.0000000000000000000, 0.0000000000000000000, 1.000000000000000000 ) ) ;
#67 = CARTESIAN_POINT ( 'NONE',  ( 0.0000000000000000000, -4.499999999999999100, 0.0000000000000000000 ) ) ;
#68 = DIRECTION ( 'NONE',  ( 4.118932920205440700E-017, 0.9417419115948377800, -0.3363363969981551000 ) ) ;
#69 = CARTESIAN_POINT ( 'NONE',  ( 2.071536523722713900E-015, -6.999999999999999100, -15.73820200940741300 ) ) ;
#70 = DIRECTION ( 'NONE',  ( 0.0000000000000000000, 0.0000000000000000000, 1.000000000000000000 ) ) ;
#71 =( LENGTH_UNIT ( ) NAMED_UNIT ( * ) SI_UNIT ( .MILLI., .METRE. ) );
#72 = CARTESIAN_POINT ( 'NONE',  ( 0.0000000000000000000, 20.00000000000000000, 14.99999999999999600 ) ) ;
#73 = CARTESIAN_POINT ( 'NONE',  ( 0.0000000000000000000, 19.99999999999999600, 0.0000000000000000000 ) ) ;
#74 = DIRECTION ( 'NONE',  ( -0.0000000000000000000, 1.000000000000000000, -0.0000000000000000000 ) ) ;
#75 = DIRECTION ( 'NONE',  ( -0.0000000000000000000, 1.000000000000000000, -0.0000000000000000000 ) ) ;
#76 = CARTESIAN_POINT ( 'NONE',  ( 0.0000000000000000000, -5.340840992495390800, 0.0000000000000000000 ) ) ;
#77 = DIRECTION ( 'NONE',  ( 0.0000000000000000000, 0.0000000000000000000, 1.000000000000000000 ) ) ;
#78 = PLANE ( 'NONE',  #186 ) ;
#79 = CARTESIAN_POINT ( 'NONE',  ( 1.927373871515523000E-015, -4.499999999999999100, -15.73820200940741300 ) ) ;
#80 = DIRECTION ( 'NONE',  ( 0.0000000000000000000, 0.0000000000000000000, 1.000000000000000000 ) ) ;
#81 = PLANE ( 'NONE',  #218 ) ;
#82 = DIRECTION ( 'NONE',  ( 0.0000000000000000000, -0.0000000000000000000, -1.000000000000000000 ) ) ;
#83 = DATE_TIME_ROLE ( 'classification_date' ) ;
#84 = PERSON_AND_ORGANIZATION_ROLE ( 'design_supplier' ) ;
#85 = DIRECTION ( 'NONE',  ( 0.0000000000000000000, 0.0000000000000000000, -1.000000000000000000 ) ) ;
#86 = DIRECTION ( 'NONE',  ( -0.0000000000000000000, 1.000000000000000000, -0.0000000000000000000 ) ) ;
#87 = DIRECTION ( 'NONE',  ( 0.0000000000000000000, 0.0000000000000000000, 1.000000000000000000 ) ) ;
#88 = APPLICATION_CONTEXT ( 'configuration controlled 3d designs of mechanical parts and assemblies' ) ;
#89 = DIRECTION ( 'NONE',  ( 0.0000000000000000000, 0.0000000000000000000, 1.000000000000000000 ) ) ;
#90 = CARTESIAN_POINT ( 'NONE',  ( 0.0000000000000000000, 26.19748375073886800, 0.0000000000000000000 ) ) ;
#91 = APPROVAL_ROLE ( '' ) ;
#92 = CARTESIAN_POINT ( 'NONE',  ( 0.0000000000000000000, 26.19748375073886800, 0.0000000000000000000 ) ) ;
#93 = PERSON_AND_ORGANIZATION_ROLE ( 'design_owner' ) ;
#94 = DIRECTION ( 'NONE',  ( 0.0000000000000000000, 0.0000000000000000000, 1.000000000000000000 ) ) ;
#95 = CARTESIAN_POINT ( 'NONE',  ( 0.0000000000000000000, 20.00000000000000000, 0.0000000000000000000 ) ) ;
#96 = DIRECTION ( 'NONE',  ( 1.000000000000000000, 0.0000000000000000000, 0.0000000000000000000 ) ) ;
#97 = CARTESIAN_POINT ( 'NONE',  ( 0.0000000000000000000, -3.469446951953614200E-015, 0.0000000000000000000 ) ) ;
#98 = CARTESIAN_POINT ( 'NONE',  ( 0.0000000000000000000, 20.00000000000000000, 0.0000000000000000000 ) ) ;
#99 = APPROVAL_ROLE ( '' ) ;
#100 = DIRECTION ( 'NONE',  ( 0.0000000000000000000, -0.9950371902099890400, -0.09950371902099881800 ) ) ;
#101 = CARTESIAN_POINT ( 'NONE',  ( 0.0000000000000000000, -3.469446951953614200E-015, 0.0000000000000000000 ) ) ;
#102 = DIRECTION ( 'NONE',  ( -0.0000000000000000000, 1.000000000000000000, -0.0000000000000000000 ) ) ;
#103 = CARTESIAN_POINT ( 'NONE',  ( 1.836970198721029200E-015, 26.19748375073886800, -14.99999999999999600 ) ) ;
#104 = DIRECTION ( 'NONE',  ( -0.0000000000000000000, 1.000000000000000000, -0.0000000000000000000 ) ) ;
#105 = DIRECTION ( 'NONE',  ( -0.0000000000000000000, 1.000000000000000000, 0.0000000000000000000 ) ) ;
#106 = APPLICATION_CONTEXT ( 'configuration controlled 3d designs of mechanical parts and assemblies' ) ;
#107 = CARTESIAN_POINT ( 'NONE',  ( 0.0000000000000000000, 0.0000000000000000000, 0.0000000000000000000 ) ) ;
#108 = DIRECTION ( 'NONE',  ( 0.0000000000000000000, 0.0000000000000000000, 1.000000000000000000 ) ) ;
#109 = DIRECTION ( 'NONE',  ( -0.0000000000000000000, 1.000000000000000000, -0.0000000000000000000 ) ) ;
#110 =( NAMED_UNIT ( * ) SI_UNIT ( $, .STERADIAN. ) SOLID_ANGLE_UNIT ( ) );
#111 = APPLICATION_PROTOCOL_DEFINITION ( 'international standard', 'config_control_design', 1994, #106 ) ;
#112 = DIRECTION ( 'NONE',  ( 0.0000000000000000000, 0.0000000000000000000, 1.000000000000000000 ) ) ;
#113 = MECHANICAL_CONTEXT ( 'NONE', #106, 'mechanical' ) ;
#114 = CARTESIAN_POINT ( 'NONE',  ( 0.0000000000000000000, -3.469446951953614200E-015, 0.0000000000000000000 ) ) ;
#115 =( NAMED_UNIT ( * ) PLANE_ANGLE_UNIT ( ) SI_UNIT ( $, .RADIAN. ) );
#116 = DIRECTION ( 'NONE',  ( -1.000000000000000000, 0.0000000000000000000, 0.0000000000000000000 ) ) ;
#117 = DIRECTION ( 'NONE',  ( -0.0000000000000000000, 1.000000000000000000, -0.0000000000000000000 ) ) ;
#118 = DIRECTION ( 'NONE',  ( 0.0000000000000000000, 0.0000000000000000000, 1.000000000000000000 ) ) ;
#119 = DIRECTION ( 'NONE',  ( -0.0000000000000000000, 1.000000000000000000, -0.0000000000000000000 ) ) ;
#120 = DIRECTION ( 'NONE',  ( -0.0000000000000000000, 1.000000000000000000, -0.0000000000000000000 ) ) ;
#121 = CARTESIAN_POINT ( 'NONE',  ( 0.0000000000000000000, -5.340840992495390800, 0.0000000000000000000 ) ) ;
#122 = DIRECTION ( 'NONE',  ( 0.0000000000000000000, 0.0000000000000000000, 1.000000000000000000 ) ) ;
#123 = DIRECTION ( 'NONE',  ( 0.0000000000000000000, 0.0000000000000000000, 1.000000000000000000 ) ) ;
#124 = PLANE ( 'NONE',  #212 ) ;
#125 = CARTESIAN_POINT ( 'NONE',  ( 0.0000000000000000000, 19.99999999999999600, 0.0000000000000000000 ) ) ;
#126 = DIRECTION ( 'NONE',  ( 0.0000000000000000000, 0.0000000000000000000, 1.000000000000000000 ) ) ;
#127 = DIRECTION ( 'NONE',  ( -0.0000000000000000000, 1.000000000000000000, -0.0000000000000000000 ) ) ;
#128 = DIRECTION ( 'NONE',  ( 0.0000000000000000000, -1.000000000000000000, 0.0000000000000000000 ) ) ;
#129 = CARTESIAN_POINT ( 'NONE',  ( 0.0000000000000000000, -3.469446951953614200E-015, 14.99999999999999600 ) ) ;
#130 = APPROVAL_STATUS ( 'not_yet_approved' ) ;
#131 = PERSON_AND_ORGANIZATION_ROLE ( 'creator' ) ;
#132 = DIRECTION ( 'NONE',  ( -0.0000000000000000000, 1.000000000000000000, -0.0000000000000000000 ) ) ;
#133 = DIRECTION ( 'NONE',  ( -0.0000000000000000000, 1.000000000000000000, -0.0000000000000000000 ) ) ;
#134 = APPROVAL_STATUS ( 'not_yet_approved' ) ;
#135 = PERSON_AND_ORGANIZATION_ROLE ( 'creator' ) ;
#136 = APPROVAL_ROLE ( '' ) ;
#137 = CARTESIAN_POINT ( 'NONE',  ( 0.0000000000000000000, -6.999999999999999100, 15.73820200940741300 ) ) ;
#138 = CARTESIAN_POINT ( 'NONE',  ( 1.836970198721029200E-015, 20.00000000000000000, -14.99999999999999600 ) ) ;
#139 = DIRECTION ( 'NONE',  ( 1.218569110023238300E-017, -0.9950371902099890400, 0.09950371902099881800 ) ) ;
#140 = DIRECTION ( 'NONE',  ( 0.0000000000000000000, 0.0000000000000000000, 1.000000000000000000 ) ) ;
#141 = DIRECTION ( 'NONE',  ( 0.0000000000000000000, 0.0000000000000000000, 1.000000000000000000 ) ) ;
#142 = DIRECTION ( 'NONE',  ( 0.0000000000000000000, -1.000000000000000000, 0.0000000000000000000 ) ) ;
#143 = DIRECTION ( 'NONE',  ( 0.0000000000000000000, 0.0000000000000000000, 1.000000000000000000 ) ) ;
#144 = APPLICATION_PROTOCOL_DEFINITION ( 'international standard', 'config_control_design', 1994, #88 ) ;
#145 = CARTESIAN_POINT ( 'NONE',  ( 0.0000000000000000000, -4.499999999999999100, 0.0000000000000000000 ) ) ;
#146 = DIRECTION ( 'NONE',  ( 0.0000000000000000000, 0.0000000000000000000, 1.000000000000000000 ) ) ;
#147 = CARTESIAN_POINT ( 'NONE',  ( 0.0000000000000000000, -5.340840992495390800, 18.09255678839450700 ) ) ;
#148 = SECURITY_CLASSIFICATION_LEVEL ( 'unclassified' ) ;
#149 = DIRECTION ( 'NONE',  ( 0.0000000000000000000, -1.000000000000000000, 0.0000000000000000000 ) ) ;
#150 = DATE_TIME_ROLE ( 'creation_date' ) ;
#151 = CARTESIAN_POINT ( 'NONE',  ( 0.0000000000000000000, -7.000000000000000000, 15.73820200940741300 ) ) ;
#152 = DIRECTION ( 'NONE',  ( 0.0000000000000000000, 0.0000000000000000000, 1.000000000000000000 ) ) ;
#153 = DIRECTION ( 'NONE',  ( 0.0000000000000000000, 0.0000000000000000000, 1.000000000000000000 ) ) ;
#154 = DIRECTION ( 'NONE',  ( -0.0000000000000000000, 1.000000000000000000, 0.0000000000000000000 ) ) ;
#155 = CARTESIAN_POINT ( 'NONE',  ( 0.0000000000000000000, -3.469446951953614200E-015, 0.0000000000000000000 ) ) ;
#156 = DIRECTION ( 'NONE',  ( 0.0000000000000000000, 0.0000000000000000000, -1.000000000000000000 ) ) ;
#157 = CARTESIAN_POINT ( 'NONE',  ( 0.0000000000000000000, -6.999999999999999100, 0.0000000000000000000 ) ) ;
#158 = DIRECTION ( 'NONE',  ( -0.0000000000000000000, 1.000000000000000000, -0.0000000000000000000 ) ) ;
#159 = CARTESIAN_POINT ( 'NONE',  ( 0.0000000000000000000, -3.469446951953614200E-015, 0.0000000000000000000 ) ) ;
#160 = CARTESIAN_POINT ( 'NONE',  ( 0.0000000000000000000, -3.469446951953614200E-015, 0.0000000000000000000 ) ) ;
#161 = DIRECTION ( 'NONE',  ( -0.0000000000000000000, 1.000000000000000000, -0.0000000000000000000 ) ) ;
#162 = CARTESIAN_POINT ( 'NONE',  ( 0.0000000000000000000, 19.99999999999999600, 0.0000000000000000000 ) ) ;
#163 = DIRECTION ( 'NONE',  ( -0.0000000000000000000, 1.000000000000000000, -0.0000000000000000000 ) ) ;
#164 = DIRECTION ( 'NONE',  ( -0.0000000000000000000, 1.000000000000000000, -0.0000000000000000000 ) ) ;
#165 = PERSON_AND_ORGANIZATION_ROLE ( 'classification_officer' ) ;
#166 = DIRECTION ( 'NONE',  ( 1.224646799147353900E-016, 0.0000000000000000000, -1.000000000000000000 ) ) ;
#167 = DIRECTION ( 'NONE',  ( -0.0000000000000000000, 1.000000000000000000, -0.0000000000000000000 ) ) ;
#168 = DIRECTION ( 'NONE',  ( 1.000000000000000000, 0.0000000000000000000, 1.224646799147353200E-016 ) ) ;
#169 = CARTESIAN_POINT ( 'NONE',  ( 2.332496387112305800E-015, -5.340840992495390800, -18.09255678839450700 ) ) ;
#170 = DIRECTION ( 'NONE',  ( -0.0000000000000000000, 1.000000000000000000, -0.0000000000000000000 ) ) ;
#171 = CARTESIAN_POINT ( 'NONE',  ( 0.0000000000000000000, 19.99999999999999600, 14.99999999999999600 ) ) ;
#172 = CARTESIAN_POINT ( 'NONE',  ( 2.449293598294706100E-015, -3.469446951953614200E-015, 19.99999999999999600 ) ) ;
#173 = CARTESIAN_POINT ( 'NONE',  ( 2.449293598294706100E-015, -3.469446951953614200E-015, -19.99999999999999600 ) ) ;
#174 = CARTESIAN_POINT ( 'NONE',  ( 0.0000000000000000000, 19.99999999999999600, -18.00000000000000000 ) ) ;
#175 = AXIS2_PLACEMENT_3D ( 'NONE', #155, #163, #77 ) ;
#176 = VECTOR ( 'NONE', #167, 1000.000000000000000 ) ;
#177 = CC_DESIGN_PERSON_AND_ORGANIZATION_ASSIGNMENT ( #273, #165, ( #240 ) ) ;
#178 = AXIS2_PLACEMENT_3D ( 'NONE', #107, #140, #96 ) ;
#179 = AXIS2_PLACEMENT_3D ( 'NONE', #95, #75, #58 ) ;
#180 = CC_DESIGN_APPROVAL ( #188, ( #207 ) ) ;
#181 = VECTOR ( 'NONE', #139, 1000.000000000000100 ) ;
#182 = AXIS2_PLACEMENT_3D ( 'NONE', #101, #133, #61 ) ;
#183 = VECTOR ( 'NONE', #100, 1000.000000000000100 ) ;
#184 = CC_DESIGN_PERSON_AND_ORGANIZATION_ASSIGNMENT ( #328, #135, ( #207 ) ) ;
#185 = CIRCLE ( 'NONE', #230, 18.09255678839450700 ) ;
#186 = AXIS2_PLACEMENT_3D ( 'NONE', #54, #154, #89 ) ;
#187 = CIRCLE ( 'NONE', #195, 18.00000000000000000 ) ;
#188 = APPROVAL ( #134, 'UNSPECIFIED' ) ;
#189 = CC_DESIGN_PERSON_AND_ORGANIZATION_ASSIGNMENT ( #280, #84, ( #190 ) ) ;
#190 = PRODUCT_DEFINITION_FORMATION_WITH_SPECIFIED_SOURCE ( 'ANY', '', #3, .NOT_KNOWN. ) ;
#191 = TOROIDAL_SURFACE ( 'NONE', #199, 15.73820200940741300, 2.500000000000002200 ) ;
#192 = VECTOR ( 'NONE', #102, 1000.000000000000000 ) ;
#193 = CIRCLE ( 'NONE', #214, 18.00000000000000000 ) ;
#194 = AXIS2_PLACEMENT_3D ( 'NONE', #79, #168, #166 ) ;
#195 = AXIS2_PLACEMENT_3D ( 'NONE', #162, #127, #152 ) ;
#196 = CONICAL_SURFACE ( 'NONE', #227, 18.00000000000000000, 0.09966865249116194100 ) ;
#197 = AXIS2_PLACEMENT_3D ( 'NONE', #159, #74, #143 ) ;
#198 = CC_DESIGN_PERSON_AND_ORGANIZATION_ASSIGNMENT ( #265, #93, ( #3 ) ) ;
#199 = AXIS2_PLACEMENT_3D ( 'NONE', #67, #119, #126 ) ;
#200 = CIRCLE ( 'NONE', #201, 18.09255678839450700 ) ;
#201 = AXIS2_PLACEMENT_3D ( 'NONE', #121, #132, #118 ) ;
#202 = CIRCLE ( 'NONE', #233, 15.73820200940741300 ) ;
#203 = CONICAL_SURFACE ( 'NONE', #222, 18.00000000000000000, 0.09966865249116194100 ) ;
#204 = AXIS2_PLACEMENT_3D ( 'NONE', #90, #120, #87 ) ;
#205 = CONICAL_SURFACE ( 'NONE', #182, 19.99999999999999600, 0.3430239404207022200 ) ;
#206 = CIRCLE ( 'NONE', #213, 14.99999999999999600 ) ;
#207 = PRODUCT_DEFINITION ( 'UNKNOWN', '', #190, #241 ) ;
#208 = AXIS2_PLACEMENT_3D ( 'NONE', #97, #59, #146 ) ;
#209 = CIRCLE ( 'NONE', #194, 2.500000000000002200 ) ;
#210 = AXIS2_PLACEMENT_3D ( 'NONE', #160, #104, #122 ) ;
#211 = AXIS2_PLACEMENT_3D ( 'NONE', #145, #164, #70 ) ;
#212 = AXIS2_PLACEMENT_3D ( 'NONE', #151, #149, #82 ) ;
#213 = AXIS2_PLACEMENT_3D ( 'NONE', #114, #109, #60 ) ;
#214 = AXIS2_PLACEMENT_3D ( 'NONE', #125, #117, #108 ) ;
#215 = CC_DESIGN_DATE_AND_TIME_ASSIGNMENT ( #244, #150, ( #207 ) ) ;
#216 = AXIS2_PLACEMENT_3D ( 'NONE', #157, #170, #80 ) ;
#217 = CIRCLE ( 'NONE', #216, 15.73820200940741300 ) ;
#218 = AXIS2_PLACEMENT_3D ( 'NONE', #171, #105, #123 ) ;
#219 = CIRCLE ( 'NONE', #221, 2.500000000000002200 ) ;
#220 = AXIS2_PLACEMENT_3D ( 'NONE', #92, #158, #94 ) ;
#221 = AXIS2_PLACEMENT_3D ( 'NONE', #50, #116, #66 ) ;
#222 = AXIS2_PLACEMENT_3D ( 'NONE', #73, #142, #156 ) ;
#223 = CIRCLE ( 'NONE', #226, 14.99999999999999600 ) ;
#224 = CC_DESIGN_DATE_AND_TIME_ASSIGNMENT ( #281, #83, ( #240 ) ) ;
#225 = VECTOR ( 'NONE', #68, 1000.000000000000100 ) ;
#226 = AXIS2_PLACEMENT_3D ( 'NONE', #98, #51, #141 ) ;
#227 = AXIS2_PLACEMENT_3D ( 'NONE', #57, #128, #85 ) ;
#228 = CIRCLE ( 'NONE', #197, 19.99999999999999600 ) ;
#229 = CIRCLE ( 'NONE', #179, 14.99999999999999600 ) ;
#230 = AXIS2_PLACEMENT_3D ( 'NONE', #76, #161, #112 ) ;
#231 = CIRCLE ( 'NONE', #175, 14.99999999999999600 ) ;
#232 = VECTOR ( 'NONE', #64, 1000.000000000000100 ) ;
#233 = AXIS2_PLACEMENT_3D ( 'NONE', #52, #86, #153 ) ;
#234 = CIRCLE ( 'NONE', #208, 19.99999999999999600 ) ;
#235 = CONICAL_SURFACE ( 'NONE', #210, 19.99999999999999600, 0.3430239404207022200 ) ;
#236 = APPROVAL ( #130, 'UNSPECIFIED' ) ;
#237 = TOROIDAL_SURFACE ( 'NONE', #211, 15.73820200940741300, 2.500000000000002200 ) ;
#238 = CC_DESIGN_PERSON_AND_ORGANIZATION_ASSIGNMENT ( #349, #131, ( #190 ) ) ;
#239 = CC_DESIGN_APPROVAL ( #236, ( #190 ) ) ;
#240 = SECURITY_CLASSIFICATION ( '', '', #148 ) ;
#241 = DESIGN_CONTEXT ( 'detailed design', #88, 'design' ) ;
#242 = DATE_AND_TIME ( #313, #41 ) ;
#243 = PERSON_AND_ORGANIZATION ( #2, #264 ) ;
#244 = DATE_AND_TIME ( #245, #37 ) ;
#245 = CALENDAR_DATE ( 2012, 23, 8 ) ;
#246 = COORDINATED_UNIVERSAL_TIME_OFFSET ( 9, 0, .AHEAD. ) ;
#247 = FACE_OUTER_BOUND ( 'NONE', #258, .T. ) ;
#248 = FACE_OUTER_BOUND ( 'NONE', #354, .T. ) ;
#249 = ORIENTED_EDGE ( 'NONE', *, *, #35, .T. ) ;
#250 = CLOSED_SHELL ( 'NONE', ( #11, #13, #14, #15, #10, #7, #9, #8, #5, #6, #16 ) ) ;
#251 = LINE ( 'NONE', #173, #225 ) ;
#252 = SHAPE_DEFINITION_REPRESENTATION ( #4, #46 ) ;
#253 = LINE ( 'NONE', #49, #183 ) ;
#254 = FACE_BOUND ( 'NONE', #267, .T. ) ;
#255 = APPROVAL_PERSON_ORGANIZATION ( #243, #236, #99 ) ;
#256 = EDGE_LOOP ( 'NONE', ( #346, #351, #355, #350 ) ) ;
#257 = COORDINATED_UNIVERSAL_TIME_OFFSET ( 9, 0, .AHEAD. ) ;
#258 = EDGE_LOOP ( 'NONE', ( #357, #348, #338, #339 ) ) ;
#259 = APPROVAL_PERSON_ORGANIZATION ( #315, #188, #136 ) ;
#260 = LINE ( 'NONE', #103, #192 ) ;
#261 = EDGE_LOOP ( 'NONE', ( #291, #332, #347, #331 ) ) ;
#262 = EDGE_LOOP ( 'NONE', ( #343, #342, #336, #335 ) ) ;
#263 = EDGE_LOOP ( 'NONE', ( #333, #318 ) ) ;
#264 = ORGANIZATION ( 'UNSPECIFIED', 'UNSPECIFIED', '' ) ;
#265 = PERSON_AND_ORGANIZATION ( #2, #264 ) ;
#266 = VERTEX_POINT ( 'NONE', #138 ) ;
#267 = EDGE_LOOP ( 'NONE', ( #334, #316 ) ) ;
#268 = VERTEX_POINT ( 'NONE', #65 ) ;
#269 = VERTEX_POINT ( 'NONE', #172 ) ;
#270 = COORDINATED_UNIVERSAL_TIME_OFFSET ( 9, 0, .AHEAD. ) ;
#271 = VERTEX_POINT ( 'NONE', #69 ) ;
#272 = VERTEX_POINT ( 'NONE', #56 ) ;
#273 = PERSON_AND_ORGANIZATION ( #2, #264 ) ;
#274 = VERTEX_POINT ( 'NONE', #147 ) ;
#275 = APPROVAL_DATE_TIME ( #330, #236 ) ;
#276 = CALENDAR_DATE ( 2012, 23, 8 ) ;
#277 = APPROVAL_PERSON_ORGANIZATION ( #278, #44, #91 ) ;
#278 = PERSON_AND_ORGANIZATION ( #2, #264 ) ;
#279 = VERTEX_POINT ( 'NONE', #53 ) ;
#280 = PERSON_AND_ORGANIZATION ( #2, #264 ) ;
#281 = DATE_AND_TIME ( #276, #39 ) ;
#282 = CYLINDRICAL_SURFACE ( 'NONE', #204, 14.99999999999999600 ) ;
#283 = DATE_AND_TIME ( #284, #40 ) ;
#284 = CALENDAR_DATE ( 2012, 23, 8 ) ;
#285 = VERTEX_POINT ( 'NONE', #169 ) ;
#286 = VERTEX_POINT ( 'NONE', #72 ) ;
#287 = APPROVAL_DATE_TIME ( #242, #188 ) ;
#288 = VERTEX_POINT ( 'NONE', #174 ) ;
#289 = FACE_OUTER_BOUND ( 'NONE', #256, .T. ) ;
#290 = VERTEX_POINT ( 'NONE', #137 ) ;
#291 = ORIENTED_EDGE ( 'NONE', *, *, #19, .T. ) ;
#292 = CYLINDRICAL_SURFACE ( 'NONE', #220, 14.99999999999999600 ) ;
#293 = FACE_OUTER_BOUND ( 'NONE', #311, .T. ) ;
#294 = VERTEX_POINT ( 'NONE', #129 ) ;
#295 = ORIENTED_EDGE ( 'NONE', *, *, #26, .T. ) ;
#296 = ORIENTED_EDGE ( 'NONE', *, *, #30, .T. ) ;
#297 = ORIENTED_EDGE ( 'NONE', *, *, #18, .F. ) ;
#298 = ORIENTED_EDGE ( 'NONE', *, *, #19, .F. ) ;
#299 = ORIENTED_EDGE ( 'NONE', *, *, #20, .F. ) ;
#300 = EDGE_LOOP ( 'NONE', ( #314, #312, #310, #319 ) ) ;
#301 = EDGE_LOOP ( 'NONE', ( #298, #297 ) ) ;
#302 = ORIENTED_EDGE ( 'NONE', *, *, #18, .T. ) ;
#303 = ORIENTED_EDGE ( 'NONE', *, *, #33, .F. ) ;
#304 = ORIENTED_EDGE ( 'NONE', *, *, #21, .F. ) ;
#305 = ORIENTED_EDGE ( 'NONE', *, *, #31, .T. ) ;
#306 = ORIENTED_EDGE ( 'NONE', *, *, #20, .T. ) ;
#307 = ORIENTED_EDGE ( 'NONE', *, *, #34, .F. ) ;
#308 = COORDINATED_UNIVERSAL_TIME_OFFSET ( 9, 0, .AHEAD. ) ;
#309 = ORIENTED_EDGE ( 'NONE', *, *, #36, .T. ) ;
#310 = ORIENTED_EDGE ( 'NONE', *, *, #23, .T. ) ;
#311 = EDGE_LOOP ( 'NONE', ( #307, #306, #309, #304 ) ) ;
#312 = ORIENTED_EDGE ( 'NONE', *, *, #22, .F. ) ;
#313 = CALENDAR_DATE ( 2012, 23, 8 ) ;
#314 = ORIENTED_EDGE ( 'NONE', *, *, #27, .F. ) ;
#315 = PERSON_AND_ORGANIZATION ( #2, #264 ) ;
#316 = ORIENTED_EDGE ( 'NONE', *, *, #28, .F. ) ;
#317 = LINE ( 'NONE', #62, #181 ) ;
#318 = ORIENTED_EDGE ( 'NONE', *, *, #12, .T. ) ;
#319 = ORIENTED_EDGE ( 'NONE', *, *, #21, .T. ) ;
#320 = LINE ( 'NONE', #63, #232 ) ;
#321 = FACE_OUTER_BOUND ( 'NONE', #340, .T. ) ;
#322 = FACE_OUTER_BOUND ( 'NONE', #301, .T. ) ;
#323 = FACE_OUTER_BOUND ( 'NONE', #263, .T. ) ;
#324 = COORDINATED_UNIVERSAL_TIME_OFFSET ( 9, 0, .AHEAD. ) ;
#325 = APPROVAL_DATE_TIME ( #283, #44 ) ;
#326 = FACE_OUTER_BOUND ( 'NONE', #300, .T. ) ;
#327 = FACE_OUTER_BOUND ( 'NONE', #262, .T. ) ;
#328 = PERSON_AND_ORGANIZATION ( #2, #264 ) ;
#329 = EDGE_LOOP ( 'NONE', ( #303, #302, #305, #299 ) ) ;
#330 = DATE_AND_TIME ( #341, #38 ) ;
#331 = ORIENTED_EDGE ( 'NONE', *, *, #31, .F. ) ;
#332 = ORIENTED_EDGE ( 'NONE', *, *, #33, .T. ) ;
#333 = ORIENTED_EDGE ( 'NONE', *, *, #22, .T. ) ;
#334 = ORIENTED_EDGE ( 'NONE', *, *, #24, .F. ) ;
#335 = ORIENTED_EDGE ( 'NONE', *, *, #24, .T. ) ;
#336 = ORIENTED_EDGE ( 'NONE', *, *, #29, .T. ) ;
#337 = FACE_OUTER_BOUND ( 'NONE', #329, .T. ) ;
#338 = ORIENTED_EDGE ( 'NONE', *, *, #28, .T. ) ;
#339 = ORIENTED_EDGE ( 'NONE', *, *, #29, .F. ) ;
#340 = EDGE_LOOP ( 'NONE', ( #352, #356, #249, #353 ) ) ;
#341 = CALENDAR_DATE ( 2012, 23, 8 ) ;
#342 = ORIENTED_EDGE ( 'NONE', *, *, #30, .F. ) ;
#343 = ORIENTED_EDGE ( 'NONE', *, *, #25, .F. ) ;
#344 = LINE ( 'NONE', #48, #176 ) ;
#345 = FACE_OUTER_BOUND ( 'NONE', #261, .T. ) ;
#346 = ORIENTED_EDGE ( 'NONE', *, *, #32, .T. ) ;
#347 = ORIENTED_EDGE ( 'NONE', *, *, #32, .F. ) ;
#348 = ORIENTED_EDGE ( 'NONE', *, *, #25, .T. ) ;
#349 = PERSON_AND_ORGANIZATION ( #2, #264 ) ;
#350 = ORIENTED_EDGE ( 'NONE', *, *, #36, .F. ) ;
#351 = ORIENTED_EDGE ( 'NONE', *, *, #34, .T. ) ;
#352 = ORIENTED_EDGE ( 'NONE', *, *, #12, .F. ) ;
#353 = ORIENTED_EDGE ( 'NONE', *, *, #23, .F. ) ;
#354 = EDGE_LOOP ( 'NONE', ( #296, #295 ) ) ;
#355 = ORIENTED_EDGE ( 'NONE', *, *, #35, .F. ) ;
#356 = ORIENTED_EDGE ( 'NONE', *, *, #27, .T. ) ;
#357 = ORIENTED_EDGE ( 'NONE', *, *, #26, .F. ) ;
ENDSEC;
END-ISO-10303-21;
