ISO-10303-21;
HEADER;
FILE_DESCRIPTION (( 'STEP AP203' ),
    '1' );
FILE_NAME ('sone3D.STEP',
    '2015-08-31T10:17:59',
    ( '' ),
    ( '' ),
    'SwSTEP 2.0',
    'SolidWorks 2012',
    '' );
FILE_SCHEMA (( 'CONFIG_CONTROL_DESIGN' ));
ENDSEC;

DATA;
#1 = APPLICATION_CONTEXT ( 'configuration controlled 3d designs of mechanical parts and assemblies' ) ;
#2 = APPLICATION_CONTEXT ( 'configuration controlled 3d designs of mechanical parts and assemblies' ) ;
#3 = AXIS2_PLACEMENT_3D ( 'NONE', #117, #124, #125 ) ;
#4 = VECTOR ( 'NONE', #120, 1000.000000000000000 ) ;
#5 = CYLINDRICAL_SURFACE ( 'NONE', #7, 4.500000000000000000 ) ;
#6 = VECTOR ( 'NONE', #123, 1000.000000000000000 ) ;
#7 = AXIS2_PLACEMENT_3D ( 'NONE', #126, #127, #128 ) ;
#8 = VECTOR ( 'NONE', #131, 1000.000000000000000 ) ;
#9 = AXIS2_PLACEMENT_3D ( 'NONE', #148, #149, #150 ) ;
#10 = PRODUCT_DEFINITION_FORMATION_WITH_SPECIFIED_SOURCE ( 'ANY', '', #17, .NOT_KNOWN. ) ;
#11 = APPROVAL_PERSON_ORGANIZATION ( #287, #261, #289 ) ;
#12 = COORDINATED_UNIVERSAL_TIME_OFFSET ( 9, 0, .AHEAD. ) ;
#13 = CALENDAR_DATE ( 2015, 31, 8 ) ;
#14 = CC_DESIGN_APPROVAL ( #261, ( #10 ) ) ;
#15 = SECURITY_CLASSIFICATION ( '', '', #296 ) ;
#16 = COORDINATED_UNIVERSAL_TIME_OFFSET ( 9, 0, .AHEAD. ) ;
#17 = PRODUCT ( 'sone3D', 'sone3D', '', ( #152 ) ) ;
#18 = VECTOR ( 'NONE', #56, 1000.000000000000000 ) ;
#19 = VECTOR ( 'NONE', #59, 1000.000000000000000 ) ;
#20 = AXIS2_PLACEMENT_3D ( 'NONE', #42, #43, #44 ) ;
#21 = VECTOR ( 'NONE', #65, 1000.000000000000000 ) ;
#22 = VECTOR ( 'NONE', #69, 1000.000000000000000 ) ;
#23 = VECTOR ( 'NONE', #38, 1000.000000000000000 ) ;
#24 = AXIS2_PLACEMENT_3D ( 'NONE', #78, #79, #80 ) ;
#25 = VECTOR ( 'NONE', #41, 1000.000000000000000 ) ;
#26 = FACE_OUTER_BOUND ( 'NONE', #202, .T. ) ;
#27 = FACE_OUTER_BOUND ( 'NONE', #206, .T. ) ;
#28 = FACE_OUTER_BOUND ( 'NONE', #204, .T. ) ;
#29 = AXIS2_PLACEMENT_3D ( 'NONE', #233, #234, #235 ) ;
#30 = CLOSED_SHELL ( 'NONE', ( #252, #242, #208, #251, #217, #263, #222, #253 ) ) ;
#31 = VECTOR ( 'NONE', #225, 1000.000000000000000 ) ;
#32 = AXIS2_PLACEMENT_3D ( 'NONE', #227, #228, #229 ) ;
#33 = AXIS2_PLACEMENT_3D ( 'NONE', #60, #61, #62 ) ;
#34 = VECTOR ( 'NONE', #232, 1000.000000000000000 ) ;
#35 =( GEOMETRIC_REPRESENTATION_CONTEXT ( 3 ) GLOBAL_UNCERTAINTY_ASSIGNED_CONTEXT ( ( #187 ) ) GLOBAL_UNIT_ASSIGNED_CONTEXT ( ( #144, #145, #146 ) ) REPRESENTATION_CONTEXT ( 'NONE', 'WORKASPACE' ) );
#36 = LINE ( 'NONE', #37, #23 ) ;
#37 = CARTESIAN_POINT ( 'NONE',  ( 0.0000000000000000000, 0.0000000000000000000, 500.0000000000000000 ) ) ;
#38 = DIRECTION ( 'NONE',  ( 1.000000000000000000, 0.0000000000000000000, 0.0000000000000000000 ) ) ;
#39 = LINE ( 'NONE', #40, #25 ) ;
#40 = CARTESIAN_POINT ( 'NONE',  ( 0.0000000000000000000, 10.50000000000000000, 500.0000000000000000 ) ) ;
#41 = DIRECTION ( 'NONE',  ( 0.0000000000000000000, -1.000000000000000000, 0.0000000000000000000 ) ) ;
#42 = CARTESIAN_POINT ( 'NONE',  ( 4.500000000000000900, 10.50000000000000000, 500.0000000000000000 ) ) ;
#43 = DIRECTION ( 'NONE',  ( 0.0000000000000000000, 0.0000000000000000000, 1.000000000000000000 ) ) ;
#44 = DIRECTION ( 'NONE',  ( 1.000000000000000000, 0.0000000000000000000, -0.0000000000000000000 ) ) ;
#45 = LINE ( 'NONE', #46, #165 ) ;
#46 = CARTESIAN_POINT ( 'NONE',  ( 22.00000000000000000, 0.0000000000000000000, -500.0000000000000000 ) ) ;
#47 = DIRECTION ( 'NONE',  ( 0.0000000000000000000, 1.000000000000000000, 0.0000000000000000000 ) ) ;
#48 = PLANE ( 'NONE',  #166 ) ;
#49 = CARTESIAN_POINT ( 'NONE',  ( 0.0000000000000000000, 0.0000000000000000000, 500.0000000000000000 ) ) ;
#50 = DIRECTION ( 'NONE',  ( 0.0000000000000000000, 1.000000000000000000, 0.0000000000000000000 ) ) ;
#51 = DIRECTION ( 'NONE',  ( 0.0000000000000000000, -0.0000000000000000000, 1.000000000000000000 ) ) ;
#52 = LINE ( 'NONE', #75, #169 ) ;
#53 = DIRECTION ( 'NONE',  ( -1.000000000000000000, -1.334402673828313300E-016, 0.0000000000000000000 ) ) ;
#54 = LINE ( 'NONE', #55, #18 ) ;
#55 = CARTESIAN_POINT ( 'NONE',  ( 9.000000000000000000, 10.50000000000000000, 500.0000000000000000 ) ) ;
#56 = DIRECTION ( 'NONE',  ( -0.0000000000000000000, -0.0000000000000000000, -1.000000000000000000 ) ) ;
#57 = LINE ( 'NONE', #58, #19 ) ;
#58 = CARTESIAN_POINT ( 'NONE',  ( 0.0000000000000000000, 0.0000000000000000000, -500.0000000000000000 ) ) ;
#59 = DIRECTION ( 'NONE',  ( 1.000000000000000000, 0.0000000000000000000, 0.0000000000000000000 ) ) ;
#60 = CARTESIAN_POINT ( 'NONE',  ( 9.000000000000001800, 3.999999999999998200, 500.0000000000000000 ) ) ;
#61 = DIRECTION ( 'NONE',  ( -1.000000000000000000, -2.668805347656625700E-016, 0.0000000000000000000 ) ) ;
#62 = DIRECTION ( 'NONE',  ( 2.668805347656625700E-016, -1.000000000000000000, 0.0000000000000000000 ) ) ;
#63 = LINE ( 'NONE', #64, #21 ) ;
#64 = CARTESIAN_POINT ( 'NONE',  ( 22.00000000000000000, 0.0000000000000000000, 500.0000000000000000 ) ) ;
#65 = DIRECTION ( 'NONE',  ( 0.0000000000000000000, 1.000000000000000000, 0.0000000000000000000 ) ) ;
#66 = PLANE ( 'NONE',  #20 ) ;
#67 = LINE ( 'NONE', #68, #22 ) ;
#68 = CARTESIAN_POINT ( 'NONE',  ( 9.000000000000001800, 3.999999999999998200, -500.0000000000000000 ) ) ;
#69 = DIRECTION ( 'NONE',  ( -2.668805347656625700E-016, 1.000000000000000000, 0.0000000000000000000 ) ) ;
#70 = PRODUCT_DEFINITION_SHAPE ( 'NONE', 'NONE',  #211 ) ;
#71 = DESIGN_CONTEXT ( 'detailed design', #2, 'design' ) ;
#72 = MANIFOLD_SOLID_BREP ( 'ÎÞ½ - µoµ1', #30 ) ;
#73 = VECTOR ( 'NONE', #239, 1000.000000000000000 ) ;
#74 = FACE_OUTER_BOUND ( 'NONE', #270, .T. ) ;
#75 = CARTESIAN_POINT ( 'NONE',  ( 22.00000000000000000, 0.0000000000000000000, 500.0000000000000000 ) ) ;
#76 = DIRECTION ( 'NONE',  ( -0.0000000000000000000, -0.0000000000000000000, -1.000000000000000000 ) ) ;
#77 = PLANE ( 'NONE',  #24 ) ;
#78 = CARTESIAN_POINT ( 'NONE',  ( 22.00000000000000000, 4.000000000000000000, 500.0000000000000000 ) ) ;
#79 = DIRECTION ( 'NONE',  ( 1.334402673828313300E-016, -1.000000000000000000, 0.0000000000000000000 ) ) ;
#80 = DIRECTION ( 'NONE',  ( 1.000000000000000000, 1.334402673828313300E-016, 0.0000000000000000000 ) ) ;
#81 = PLANE ( 'NONE',  #168 ) ;
#82 = CARTESIAN_POINT ( 'NONE',  ( 0.0000000000000000000, 10.50000000000000000, 500.0000000000000000 ) ) ;
#83 = DIRECTION ( 'NONE',  ( 1.000000000000000000, 0.0000000000000000000, -0.0000000000000000000 ) ) ;
#84 = DIRECTION ( 'NONE',  ( -0.0000000000000000000, 0.0000000000000000000, -1.000000000000000000 ) ) ;
#85 = PLANE ( 'NONE',  #172 ) ;
#86 = CARTESIAN_POINT ( 'NONE',  ( 4.500000000000000900, 10.50000000000000000, -500.0000000000000000 ) ) ;
#87 = DIRECTION ( 'NONE',  ( 0.0000000000000000000, 0.0000000000000000000, 1.000000000000000000 ) ) ;
#88 = DIRECTION ( 'NONE',  ( 1.000000000000000000, 0.0000000000000000000, -0.0000000000000000000 ) ) ;
#89 = LINE ( 'NONE', #90, #173 ) ;
#90 = CARTESIAN_POINT ( 'NONE',  ( 22.00000000000000000, 4.000000000000000000, -500.0000000000000000 ) ) ;
#91 = DIRECTION ( 'NONE',  ( -1.000000000000000000, -1.334402673828313300E-016, 0.0000000000000000000 ) ) ;
#92 = CARTESIAN_POINT ( 'NONE',  ( 22.00000000000000000, 4.000000000000000000, 500.0000000000000000 ) ) ;
#93 = CARTESIAN_POINT ( 'NONE',  ( 22.00000000000000000, 0.0000000000000000000, -500.0000000000000000 ) ) ;
#94 = CARTESIAN_POINT ( 'NONE',  ( 0.0000000000000000000, 0.0000000000000000000, 500.0000000000000000 ) ) ;
#95 = CARTESIAN_POINT ( 'NONE',  ( 22.00000000000000000, 0.0000000000000000000, 500.0000000000000000 ) ) ;
#96 = CARTESIAN_POINT ( 'NONE',  ( 8.673617379884035500E-016, 10.50000000000000000, 500.0000000000000000 ) ) ;
#97 = CARTESIAN_POINT ( 'NONE',  ( 8.673617379884035500E-016, 10.50000000000000000, -500.0000000000000000 ) ) ;
#98 = CARTESIAN_POINT ( 'NONE',  ( 0.0000000000000000000, 0.0000000000000000000, -500.0000000000000000 ) ) ;
#99 = CARTESIAN_POINT ( 'NONE',  ( 9.000000000000001800, 3.999999999999998200, 500.0000000000000000 ) ) ;
#100 = ORIENTED_EDGE ( 'NONE', *, *, #266, .T. ) ;
#101 = ORIENTED_EDGE ( 'NONE', *, *, #260, .F. ) ;
#102 = ORIENTED_EDGE ( 'NONE', *, *, #209, .F. ) ;
#103 = ORIENTED_EDGE ( 'NONE', *, *, #213, .F. ) ;
#104 = ORIENTED_EDGE ( 'NONE', *, *, #212, .T. ) ;
#105 = ORIENTED_EDGE ( 'NONE', *, *, #207, .F. ) ;
#106 = ORIENTED_EDGE ( 'NONE', *, *, #218, .F. ) ;
#107 = ORIENTED_EDGE ( 'NONE', *, *, #213, .T. ) ;
#108 = ORIENTED_EDGE ( 'NONE', *, *, #262, .F. ) ;
#109 = ORIENTED_EDGE ( 'NONE', *, *, #257, .T. ) ;
#110 = ORIENTED_EDGE ( 'NONE', *, *, #215, .F. ) ;
#111 = ORIENTED_EDGE ( 'NONE', *, *, #210, .T. ) ;
#112 = ORIENTED_EDGE ( 'NONE', *, *, #248, .F. ) ;
#113 = ORIENTED_EDGE ( 'NONE', *, *, #260, .T. ) ;
#114 = ORIENTED_EDGE ( 'NONE', *, *, #224, .T. ) ;
#115 = ORIENTED_EDGE ( 'NONE', *, *, #216, .T. ) ;
#116 = ORIENTED_EDGE ( 'NONE', *, *, #219, .T. ) ;
#117 = CARTESIAN_POINT ( 'NONE',  ( 4.500000000000000900, 10.50000000000000000, 500.0000000000000000 ) ) ;
#118 = LINE ( 'NONE', #119, #4 ) ;
#119 = CARTESIAN_POINT ( 'NONE',  ( 0.0000000000000000000, 10.50000000000000000, -500.0000000000000000 ) ) ;
#120 = DIRECTION ( 'NONE',  ( 0.0000000000000000000, -1.000000000000000000, 0.0000000000000000000 ) ) ;
#121 = LINE ( 'NONE', #122, #6 ) ;
#122 = CARTESIAN_POINT ( 'NONE',  ( 9.000000000000001800, 3.999999999999998200, 500.0000000000000000 ) ) ;
#123 = DIRECTION ( 'NONE',  ( -0.0000000000000000000, -0.0000000000000000000, -1.000000000000000000 ) ) ;
#124 = DIRECTION ( 'NONE',  ( 0.0000000000000000000, 0.0000000000000000000, 1.000000000000000000 ) ) ;
#125 = DIRECTION ( 'NONE',  ( 1.000000000000000000, 0.0000000000000000000, 0.0000000000000000000 ) ) ;
#126 = CARTESIAN_POINT ( 'NONE',  ( 4.500000000000000900, 10.50000000000000000, 500.0000000000000000 ) ) ;
#127 = DIRECTION ( 'NONE',  ( -0.0000000000000000000, -0.0000000000000000000, -1.000000000000000000 ) ) ;
#128 = DIRECTION ( 'NONE',  ( -1.000000000000000000, 0.0000000000000000000, 0.0000000000000000000 ) ) ;
#129 = LINE ( 'NONE', #130, #8 ) ;
#130 = CARTESIAN_POINT ( 'NONE',  ( 8.673617379884035500E-016, 10.50000000000000000, 500.0000000000000000 ) ) ;
#131 = DIRECTION ( 'NONE',  ( -0.0000000000000000000, -0.0000000000000000000, -1.000000000000000000 ) ) ;
#132 = CARTESIAN_POINT ( 'NONE',  ( 9.000000000000001800, 3.999999999999998200, -500.0000000000000000 ) ) ;
#133 = CARTESIAN_POINT ( 'NONE',  ( 22.00000000000000000, 4.000000000000000000, -500.0000000000000000 ) ) ;
#134 = ORIENTED_EDGE ( 'NONE', *, *, #220, .F. ) ;
#135 = ORIENTED_EDGE ( 'NONE', *, *, #224, .F. ) ;
#136 = ORIENTED_EDGE ( 'NONE', *, *, #221, .F. ) ;
#137 = ORIENTED_EDGE ( 'NONE', *, *, #212, .F. ) ;
#138 = ORIENTED_EDGE ( 'NONE', *, *, #216, .F. ) ;
#139 = ORIENTED_EDGE ( 'NONE', *, *, #221, .T. ) ;
#140 = ORIENTED_EDGE ( 'NONE', *, *, #256, .T. ) ;
#141 = VECTOR ( 'NONE', #53, 1000.000000000000000 ) ;
#142 = CARTESIAN_POINT ( 'NONE',  ( 9.000000000000000000, 10.50000000000000000, -500.0000000000000000 ) ) ;
#143 = CARTESIAN_POINT ( 'NONE',  ( 9.000000000000000000, 10.50000000000000000, 500.0000000000000000 ) ) ;
#144 =( LENGTH_UNIT ( ) NAMED_UNIT ( * ) SI_UNIT ( .MILLI., .METRE. ) );
#145 =( NAMED_UNIT ( * ) PLANE_ANGLE_UNIT ( ) SI_UNIT ( $, .RADIAN. ) );
#146 =( NAMED_UNIT ( * ) SI_UNIT ( $, .STERADIAN. ) SOLID_ANGLE_UNIT ( ) );
#147 = APPLICATION_PROTOCOL_DEFINITION ( 'international standard', 'config_control_design', 1994, #1 ) ;
#148 = CARTESIAN_POINT ( 'NONE',  ( 0.0000000000000000000, 0.0000000000000000000, 0.0000000000000000000 ) ) ;
#149 = DIRECTION ( 'NONE',  ( 0.0000000000000000000, 0.0000000000000000000, 1.000000000000000000 ) ) ;
#150 = DIRECTION ( 'NONE',  ( 1.000000000000000000, 0.0000000000000000000, 0.0000000000000000000 ) ) ;
#151 = SHAPE_DEFINITION_REPRESENTATION ( #70, #189 ) ;
#152 = MECHANICAL_CONTEXT ( 'NONE', #1, 'mechanical' ) ;
#153 = PERSON_AND_ORGANIZATION ( #188, #180 ) ;
#154 = PERSON_AND_ORGANIZATION_ROLE ( 'design_owner' ) ;
#155 = APPLICATION_PROTOCOL_DEFINITION ( 'international standard', 'config_control_design', 1994, #2 ) ;
#156 = PERSON_AND_ORGANIZATION ( #188, #180 ) ;
#157 = APPROVAL_STATUS ( 'not_yet_approved' ) ;
#158 = APPROVAL_ROLE ( '' ) ;
#159 = DATE_AND_TIME ( #183, #258 ) ;
#160 = APPROVAL_DATE_TIME ( #159, #255 ) ;
#161 = PERSON_AND_ORGANIZATION ( #188, #180 ) ;
#162 = PERSON_AND_ORGANIZATION_ROLE ( 'creator' ) ;
#163 = DATE_AND_TIME ( #186, #267 ) ;
#164 = FACE_OUTER_BOUND ( 'NONE', #271, .T. ) ;
#165 = VECTOR ( 'NONE', #47, 1000.000000000000000 ) ;
#166 = AXIS2_PLACEMENT_3D ( 'NONE', #49, #50, #51 ) ;
#167 = FACE_OUTER_BOUND ( 'NONE', #205, .T. ) ;
#168 = AXIS2_PLACEMENT_3D ( 'NONE', #82, #83, #84 ) ;
#169 = VECTOR ( 'NONE', #76, 1000.000000000000000 ) ;
#170 = FACE_OUTER_BOUND ( 'NONE', #203, .T. ) ;
#171 = FACE_OUTER_BOUND ( 'NONE', #269, .T. ) ;
#172 = AXIS2_PLACEMENT_3D ( 'NONE', #86, #87, #88 ) ;
#173 = VECTOR ( 'NONE', #91, 1000.000000000000000 ) ;
#174 = CALENDAR_DATE ( 2015, 31, 8 ) ;
#175 = APPROVAL_PERSON_ORGANIZATION ( #301, #247, #303 ) ;
#176 = COORDINATED_UNIVERSAL_TIME_OFFSET ( 9, 0, .AHEAD. ) ;
#177 = CALENDAR_DATE ( 2015, 31, 8 ) ;
#178 = CC_DESIGN_APPROVAL ( #247, ( #15 ) ) ;
#179 = CC_DESIGN_SECURITY_CLASSIFICATION ( #15, ( #10 ) ) ;
#180 = ORGANIZATION ( 'UNSPECIFIED', 'UNSPECIFIED', '' ) ;
#181 = APPROVAL_PERSON_ORGANIZATION ( #156, #255, #158 ) ;
#182 = COORDINATED_UNIVERSAL_TIME_OFFSET ( 9, 0, .AHEAD. ) ;
#183 = CALENDAR_DATE ( 2015, 31, 8 ) ;
#184 = CC_DESIGN_APPROVAL ( #255, ( #211 ) ) ;
#185 = COORDINATED_UNIVERSAL_TIME_OFFSET ( 9, 0, .AHEAD. ) ;
#186 = CALENDAR_DATE ( 2015, 31, 8 ) ;
#187 = UNCERTAINTY_MEASURE_WITH_UNIT (LENGTH_MEASURE( 1.000000000000000100E-005 ), #144, 'distance_accuracy_value', 'NONE');
#188 = PERSON ( 'UNSPECIFIED', 'UNSPECIFIED', 'UNSPECIFIED', ('UNSPECIFIED'), ('UNSPECIFIED'), ('UNSPECIFIED') ) ;
#189 = ADVANCED_BREP_SHAPE_REPRESENTATION ( 'sone3D', ( #72, #9 ), #35 ) ;
#190 = ORIENTED_EDGE ( 'NONE', *, *, #215, .T. ) ;
#191 = ORIENTED_EDGE ( 'NONE', *, *, #209, .T. ) ;
#192 = ORIENTED_EDGE ( 'NONE', *, *, #266, .F. ) ;
#193 = ORIENTED_EDGE ( 'NONE', *, *, #248, .T. ) ;
#194 = ORIENTED_EDGE ( 'NONE', *, *, #257, .F. ) ;
#195 = ORIENTED_EDGE ( 'NONE', *, *, #256, .F. ) ;
#196 = ORIENTED_EDGE ( 'NONE', *, *, #210, .F. ) ;
#197 = ORIENTED_EDGE ( 'NONE', *, *, #262, .T. ) ;
#198 = ORIENTED_EDGE ( 'NONE', *, *, #207, .T. ) ;
#199 = ORIENTED_EDGE ( 'NONE', *, *, #219, .F. ) ;
#200 = ORIENTED_EDGE ( 'NONE', *, *, #220, .T. ) ;
#201 = ORIENTED_EDGE ( 'NONE', *, *, #218, .T. ) ;
#202 = EDGE_LOOP ( 'NONE', ( #115, #112, #134, #104 ) ) ;
#203 = EDGE_LOOP ( 'NONE', ( #109, #137, #136, #100 ) ) ;
#204 = EDGE_LOOP ( 'NONE', ( #114, #102, #106, #193 ) ) ;
#205 = EDGE_LOOP ( 'NONE', ( #140, #101, #103, #191 ) ) ;
#206 = EDGE_LOOP ( 'NONE', ( #116, #110, #105, #113 ) ) ;
#207 = EDGE_CURVE ( 'NONE', #281, #283, #284, .T. ) ;
#208 = ADVANCED_FACE ( 'NONE', ( #28 ), #226, .F. ) ;
#209 = EDGE_CURVE ( 'NONE', #273, #272, #230, .T. ) ;
#210 = EDGE_CURVE ( 'NONE', #282, #278, #250, .T. ) ;
#211 = PRODUCT_DEFINITION ( 'UNKNOWN', '', #10, #71 ) ;
#212 = EDGE_CURVE ( 'NONE', #275, #279, #237, .T. ) ;
#213 = EDGE_CURVE ( 'NONE', #273, #281, #240, .T. ) ;
#214 = LOCAL_TIME ( 19, 17, 59.00000000000000000, #12 ) ;
#215 = EDGE_CURVE ( 'NONE', #283, #282, #54, .T. ) ;
#216 = EDGE_CURVE ( 'NONE', #279, #274, #57, .T. ) ;
#217 = ADVANCED_FACE ( 'NONE', ( #27 ), #236, .F. ) ;
#218 = EDGE_CURVE ( 'NONE', #276, #273, #63, .T. ) ;
#219 = EDGE_CURVE ( 'NONE', #280, #282, #67, .T. ) ;
#220 = EDGE_CURVE ( 'NONE', #275, #276, #36, .T. ) ;
#221 = EDGE_CURVE ( 'NONE', #277, #275, #39, .T. ) ;
#222 = ADVANCED_FACE ( 'NONE', ( #74 ), #66, .T. ) ;
#223 = CC_DESIGN_PERSON_AND_ORGANIZATION_ASSIGNMENT ( #294, #295, ( #10 ) ) ;
#224 = EDGE_CURVE ( 'NONE', #274, #272, #45, .T. ) ;
#225 = DIRECTION ( 'NONE',  ( -2.668805347656625700E-016, 1.000000000000000000, 0.0000000000000000000 ) ) ;
#226 = PLANE ( 'NONE',  #32 ) ;
#227 = CARTESIAN_POINT ( 'NONE',  ( 22.00000000000000000, 0.0000000000000000000, 500.0000000000000000 ) ) ;
#228 = DIRECTION ( 'NONE',  ( -1.000000000000000000, 0.0000000000000000000, 0.0000000000000000000 ) ) ;
#229 = DIRECTION ( 'NONE',  ( 0.0000000000000000000, 0.0000000000000000000, 1.000000000000000000 ) ) ;
#230 = LINE ( 'NONE', #231, #34 ) ;
#231 = CARTESIAN_POINT ( 'NONE',  ( 22.00000000000000000, 4.000000000000000000, 500.0000000000000000 ) ) ;
#232 = DIRECTION ( 'NONE',  ( -0.0000000000000000000, -0.0000000000000000000, -1.000000000000000000 ) ) ;
#233 = CARTESIAN_POINT ( 'NONE',  ( 4.500000000000000900, 10.50000000000000000, -500.0000000000000000 ) ) ;
#234 = DIRECTION ( 'NONE',  ( 0.0000000000000000000, 0.0000000000000000000, 1.000000000000000000 ) ) ;
#235 = DIRECTION ( 'NONE',  ( 1.000000000000000000, 0.0000000000000000000, 0.0000000000000000000 ) ) ;
#236 = PLANE ( 'NONE',  #33 ) ;
#237 = LINE ( 'NONE', #238, #73 ) ;
#238 = CARTESIAN_POINT ( 'NONE',  ( 0.0000000000000000000, 0.0000000000000000000, 500.0000000000000000 ) ) ;
#239 = DIRECTION ( 'NONE',  ( -0.0000000000000000000, -0.0000000000000000000, -1.000000000000000000 ) ) ;
#240 = LINE ( 'NONE', #241, #141 ) ;
#241 = CARTESIAN_POINT ( 'NONE',  ( 22.00000000000000000, 4.000000000000000000, 500.0000000000000000 ) ) ;
#242 = ADVANCED_FACE ( 'NONE', ( #26 ), #48, .F. ) ;
#243 = CC_DESIGN_PERSON_AND_ORGANIZATION_ASSIGNMENT ( #297, #298, ( #15 ) ) ;
#244 = PRODUCT_RELATED_PRODUCT_CATEGORY ( 'detail', '', ( #17 ) ) ;
#245 = CC_DESIGN_DATE_AND_TIME_ASSIGNMENT ( #299, #300, ( #15 ) ) ;
#246 = LOCAL_TIME ( 19, 17, 59.00000000000000000, #16 ) ;
#247 = APPROVAL ( #302, 'UNSPECIFIED' ) ;
#248 = EDGE_CURVE ( 'NONE', #276, #274, #52, .T. ) ;
#249 = CC_DESIGN_PERSON_AND_ORGANIZATION_ASSIGNMENT ( #153, #154, ( #17 ) ) ;
#250 = CIRCLE ( 'NONE', #29, 4.500000000000000900 ) ;
#251 = ADVANCED_FACE ( 'NONE', ( #167 ), #77, .F. ) ;
#252 = ADVANCED_FACE ( 'NONE', ( #170 ), #81, .F. ) ;
#253 = ADVANCED_FACE ( 'NONE', ( #164 ), #85, .F. ) ;
#254 = CC_DESIGN_PERSON_AND_ORGANIZATION_ASSIGNMENT ( #161, #162, ( #211 ) ) ;
#255 = APPROVAL ( #157, 'UNSPECIFIED' ) ;
#256 = EDGE_CURVE ( 'NONE', #272, #280, #89, .T. ) ;
#257 = EDGE_CURVE ( 'NONE', #278, #279, #118, .T. ) ;
#258 = LOCAL_TIME ( 19, 17, 59.00000000000000000, #182 ) ;
#259 = CIRCLE ( 'NONE', #3, 4.500000000000000900 ) ;
#260 = EDGE_CURVE ( 'NONE', #281, #280, #121, .T. ) ;
#261 = APPROVAL ( #288, 'UNSPECIFIED' ) ;
#262 = EDGE_CURVE ( 'NONE', #283, #277, #259, .T. ) ;
#263 = ADVANCED_FACE ( 'NONE', ( #171 ), #5, .T. ) ;
#264 = CC_DESIGN_PERSON_AND_ORGANIZATION_ASSIGNMENT ( #292, #293, ( #10 ) ) ;
#265 = LOCAL_TIME ( 19, 17, 59.00000000000000000, #176 ) ;
#266 = EDGE_CURVE ( 'NONE', #277, #278, #129, .T. ) ;
#267 = LOCAL_TIME ( 19, 17, 59.00000000000000000, #185 ) ;
#268 = CC_DESIGN_DATE_AND_TIME_ASSIGNMENT ( #163, #286, ( #211 ) ) ;
#269 = EDGE_LOOP ( 'NONE', ( #111, #192, #108, #190 ) ) ;
#270 = EDGE_LOOP ( 'NONE', ( #139, #200, #201, #107, #198, #197 ) ) ;
#271 = EDGE_LOOP ( 'NONE', ( #194, #196, #199, #195, #135, #138 ) ) ;
#272 = VERTEX_POINT ( 'NONE', #133 ) ;
#273 = VERTEX_POINT ( 'NONE', #92 ) ;
#274 = VERTEX_POINT ( 'NONE', #93 ) ;
#275 = VERTEX_POINT ( 'NONE', #94 ) ;
#276 = VERTEX_POINT ( 'NONE', #95 ) ;
#277 = VERTEX_POINT ( 'NONE', #96 ) ;
#278 = VERTEX_POINT ( 'NONE', #97 ) ;
#279 = VERTEX_POINT ( 'NONE', #98 ) ;
#280 = VERTEX_POINT ( 'NONE', #132 ) ;
#281 = VERTEX_POINT ( 'NONE', #99 ) ;
#282 = VERTEX_POINT ( 'NONE', #142 ) ;
#283 = VERTEX_POINT ( 'NONE', #143 ) ;
#284 = LINE ( 'NONE', #285, #31 ) ;
#285 = CARTESIAN_POINT ( 'NONE',  ( 9.000000000000001800, 3.999999999999998200, 500.0000000000000000 ) ) ;
#286 = DATE_TIME_ROLE ( 'creation_date' ) ;
#287 = PERSON_AND_ORGANIZATION ( #188, #180 ) ;
#288 = APPROVAL_STATUS ( 'not_yet_approved' ) ;
#289 = APPROVAL_ROLE ( '' ) ;
#290 = DATE_AND_TIME ( #13, #214 ) ;
#291 = APPROVAL_DATE_TIME ( #290, #261 ) ;
#292 = PERSON_AND_ORGANIZATION ( #188, #180 ) ;
#293 = PERSON_AND_ORGANIZATION_ROLE ( 'creator' ) ;
#294 = PERSON_AND_ORGANIZATION ( #188, #180 ) ;
#295 = PERSON_AND_ORGANIZATION_ROLE ( 'design_supplier' ) ;
#296 = SECURITY_CLASSIFICATION_LEVEL ( 'unclassified' ) ;
#297 = PERSON_AND_ORGANIZATION ( #188, #180 ) ;
#298 = PERSON_AND_ORGANIZATION_ROLE ( 'classification_officer' ) ;
#299 = DATE_AND_TIME ( #174, #246 ) ;
#300 = DATE_TIME_ROLE ( 'classification_date' ) ;
#301 = PERSON_AND_ORGANIZATION ( #188, #180 ) ;
#302 = APPROVAL_STATUS ( 'not_yet_approved' ) ;
#303 = APPROVAL_ROLE ( '' ) ;
#304 = DATE_AND_TIME ( #177, #265 ) ;
#305 = APPROVAL_DATE_TIME ( #304, #247 ) ;
ENDSEC;
END-ISO-10303-21;
