ISO-10303-21;
HEADER;
FILE_DESCRIPTION (( 'STEP AP203' ),
    '1' );
FILE_NAME ('sone3D.STEP',
    '2017-09-25T06:15:47',
    ( '' ),
    ( '' ),
    'SwSTEP 2.0',
    'SolidWorks 2014',
    '' );
FILE_SCHEMA (( 'CONFIG_CONTROL_DESIGN' ));
ENDSEC;

DATA;
#1 = DIRECTION ( 'NONE',  ( -1.734723475976807100E-016, 1.000000000000000000, 0.0000000000000000000 ) ) ;
#2 = EDGE_CURVE ( 'NONE', #194, #379, #233, .T. ) ;
#3 = PERSON_AND_ORGANIZATION ( #152, #165 ) ;
#4 = ORIENTED_EDGE ( 'NONE', *, *, #262, .F. ) ;
#5 = ORIENTED_EDGE ( 'NONE', *, *, #20, .F. ) ;
#6 = ADVANCED_FACE ( 'NONE', ( #145 ), #312, .F. ) ;
#7 = CC_DESIGN_PERSON_AND_ORGANIZATION_ASSIGNMENT ( #42, #106, ( #41 ) ) ;
#8 = CARTESIAN_POINT ( 'NONE',  ( -5.999999999999999100, -2.499999999999999600, -500.0000000000000000 ) ) ;
#9 = CIRCLE ( 'NONE', #206, 0.5000000000000004400 ) ;
#10 = EDGE_LOOP ( 'NONE', ( #150, #4, #73, #210 ) ) ;
#11 = CARTESIAN_POINT ( 'NONE',  ( -5.999999999999999100, -2.499999999999999600, 500.0000000000000000 ) ) ;
#12 = DIRECTION ( 'NONE',  ( 0.0000000000000000000, 0.0000000000000000000, 1.000000000000000000 ) ) ;
#13 = DIRECTION ( 'NONE',  ( 0.0000000000000000000, 0.0000000000000000000, 1.000000000000000000 ) ) ;
#14 = EDGE_LOOP ( 'NONE', ( #371, #15, #399, #347 ) ) ;
#15 = ORIENTED_EDGE ( 'NONE', *, *, #310, .T. ) ;
#16 = VECTOR ( 'NONE', #229, 1000.000000000000000 ) ;
#17 = DIRECTION ( 'NONE',  ( 1.000000000000000000, 0.0000000000000000000, 0.0000000000000000000 ) ) ;
#18 = VERTEX_POINT ( 'NONE', #63 ) ;
#19 = DIRECTION ( 'NONE',  ( 0.0000000000000000000, -0.0000000000000000000, -1.000000000000000000 ) ) ;
#20 = EDGE_CURVE ( 'NONE', #283, #171, #362, .T. ) ;
#21 = CC_DESIGN_DATE_AND_TIME_ASSIGNMENT ( #365, #164, ( #287 ) ) ;
#22 = CARTESIAN_POINT ( 'NONE',  ( 6.500000000000002700, 2.167948338867881300, -500.0000000000000000 ) ) ;
#23 = LOCAL_TIME ( 15, 15, 47.00000000000000000, #102 ) ;
#24 = VECTOR ( 'NONE', #185, 1000.000000000000000 ) ;
#25 = ORIENTED_EDGE ( 'NONE', *, *, #71, .T. ) ;
#26 = PLANE ( 'NONE',  #404 ) ;
#27 = ORIENTED_EDGE ( 'NONE', *, *, #173, .F. ) ;
#28 = APPROVAL ( #191, 'UNSPECIFIED' ) ;
#29 = CARTESIAN_POINT ( 'NONE',  ( 6.000000000000000900, -2.499999999999999600, -500.0000000000000000 ) ) ;
#30 = DIRECTION ( 'NONE',  ( -0.0000000000000000000, 0.0000000000000000000, 1.000000000000000000 ) ) ;
#31 = CALENDAR_DATE ( 2017, 25, 9 ) ;
#32 = CIRCLE ( 'NONE', #159, 2.349999999999999600 ) ;
#33 = ORIENTED_EDGE ( 'NONE', *, *, #369, .T. ) ;
#34 = DIRECTION ( 'NONE',  ( 1.000000000000000000, 0.0000000000000000000, 0.0000000000000000000 ) ) ;
#35 = AXIS2_PLACEMENT_3D ( 'NONE', #320, #325, #197 ) ;
#36 = VECTOR ( 'NONE', #12, 1000.000000000000000 ) ;
#37 = ORIENTED_EDGE ( 'NONE', *, *, #353, .F. ) ;
#38 = EDGE_CURVE ( 'NONE', #319, #407, #398, .T. ) ;
#39 = PLANE ( 'NONE',  #98 ) ;
#40 = CARTESIAN_POINT ( 'NONE',  ( 6.000000000000000000, 2.500000000000000400, -500.0000000000000000 ) ) ;
#41 = PRODUCT_DEFINITION_FORMATION_WITH_SPECIFIED_SOURCE ( 'ANY', '', #89, .NOT_KNOWN. ) ;
#42 = PERSON_AND_ORGANIZATION ( #152, #165 ) ;
#43 = FACE_OUTER_BOUND ( 'NONE', #184, .T. ) ;
#44 = ORIENTED_EDGE ( 'NONE', *, *, #262, .T. ) ;
#45 = DIRECTION ( 'NONE',  ( 0.0000000000000000000, 0.0000000000000000000, 1.000000000000000000 ) ) ;
#46 = LINE ( 'NONE', #396, #393 ) ;
#47 = ORIENTED_EDGE ( 'NONE', *, *, #331, .T. ) ;
#48 = EDGE_CURVE ( 'NONE', #409, #394, #61, .T. ) ;
#49 = COORDINATED_UNIVERSAL_TIME_OFFSET ( 9, 0, .AHEAD. ) ;
#50 = CARTESIAN_POINT ( 'NONE',  ( -6.000000000000000000, 2.500000000000000400, 500.0000000000000000 ) ) ;
#51 = VECTOR ( 'NONE', #223, 1000.000000000000000 ) ;
#52 = ORIENTED_EDGE ( 'NONE', *, *, #132, .F. ) ;
#53 = DIRECTION ( 'NONE',  ( 0.0000000000000000000, -0.0000000000000000000, -1.000000000000000000 ) ) ;
#54 = FACE_OUTER_BOUND ( 'NONE', #351, .T. ) ;
#55 = CARTESIAN_POINT ( 'NONE',  ( -6.000000000000000000, 2.500000000000000400, 500.0000000000000000 ) ) ;
#56 = VERTEX_POINT ( 'NONE', #388 ) ;
#57 = CARTESIAN_POINT ( 'NONE',  ( 0.0000000000000000000, 0.0000000000000000000, 500.0000000000000000 ) ) ;
#58 = CC_DESIGN_SECURITY_CLASSIFICATION ( #287, ( #41 ) ) ;
#59 = CARTESIAN_POINT ( 'NONE',  ( 6.000000000000000000, 2.500000000000000400, 500.0000000000000000 ) ) ;
#60 = LOCAL_TIME ( 15, 15, 47.00000000000000000, #144 ) ;
#61 = LINE ( 'NONE', #11, #51 ) ;
#62 = VERTEX_POINT ( 'NONE', #65 ) ;
#63 = CARTESIAN_POINT ( 'NONE',  ( -6.000000000000000000, 2.500000000000000400, -500.0000000000000000 ) ) ;
#64 = CARTESIAN_POINT ( 'NONE',  ( 6.000000000000000000, 2.167948338867881300, 500.0000000000000000 ) ) ;
#65 = CARTESIAN_POINT ( 'NONE',  ( 6.000000000000000000, 2.167948338867881300, -500.0000000000000000 ) ) ;
#66 = LINE ( 'NONE', #285, #306 ) ;
#67 = ADVANCED_FACE ( 'NONE', ( #136 ), #39, .F. ) ;
#68 = ORIENTED_EDGE ( 'NONE', *, *, #241, .F. ) ;
#69 = APPROVAL_ROLE ( '' ) ;
#70 = DIRECTION ( 'NONE',  ( 1.734723475976807100E-016, -1.000000000000000000, 0.0000000000000000000 ) ) ;
#71 = EDGE_CURVE ( 'NONE', #171, #137, #385, .T. ) ;
#72 = CALENDAR_DATE ( 2017, 25, 9 ) ;
#73 = ORIENTED_EDGE ( 'NONE', *, *, #350, .F. ) ;
#74 = DIRECTION ( 'NONE',  ( 1.000000000000000000, 0.0000000000000000000, 0.0000000000000000000 ) ) ;
#75 = LINE ( 'NONE', #77, #178 ) ;
#76 = ORIENTED_EDGE ( 'NONE', *, *, #2, .T. ) ;
#77 = CARTESIAN_POINT ( 'NONE',  ( 6.000000000000000000, 2.500000000000000400, 500.0000000000000000 ) ) ;
#78 = PERSON_AND_ORGANIZATION ( #152, #165 ) ;
#79 = EDGE_LOOP ( 'NONE', ( #52, #118, #27, #244, #375, #76, #272, #314, #257 ) ) ;
#80 = AXIS2_PLACEMENT_3D ( 'NONE', #167, #202, #74 ) ;
#81 = DIRECTION ( 'NONE',  ( 1.000000000000000000, 0.0000000000000000000, 0.0000000000000000000 ) ) ;
#82 = DIRECTION ( 'NONE',  ( -1.000000000000000000, -0.0000000000000000000, -0.0000000000000000000 ) ) ;
#83 = CC_DESIGN_PERSON_AND_ORGANIZATION_ASSIGNMENT ( #290, #205, ( #287 ) ) ;
#84 = DIRECTION ( 'NONE',  ( 0.0000000000000000000, 0.0000000000000000000, 1.000000000000000000 ) ) ;
#85 = CARTESIAN_POINT ( 'NONE',  ( -6.000000000000000000, 2.500000000000000400, 500.0000000000000000 ) ) ;
#86 = LINE ( 'NONE', #349, #339 ) ;
#87 = ORIENTED_EDGE ( 'NONE', *, *, #369, .F. ) ;
#88 = EDGE_CURVE ( 'NONE', #137, #359, #324, .T. ) ;
#89 = PRODUCT ( 'sone3D', 'sone3D', '', ( #302 ) ) ;
#90 = CARTESIAN_POINT ( 'NONE',  ( 10.69999999999999900, 0.0000000000000000000, -506.6468037431537300 ) ) ;
#91 = DIRECTION ( 'NONE',  ( 1.000000000000000000, 0.0000000000000000000, 0.0000000000000000000 ) ) ;
#92 = CARTESIAN_POINT ( 'NONE',  ( 6.000000000000000000, 2.500000000000000400, 500.0000000000000000 ) ) ;
#93 = ADVANCED_FACE ( 'NONE', ( #374 ), #255, .F. ) ;
#94 = LINE ( 'NONE', #55, #16 ) ;
#95 = EDGE_LOOP ( 'NONE', ( #146, #268, #201, #237 ) ) ;
#96 = ADVANCED_FACE ( 'NONE', ( #208 ), #115, .F. ) ;
#97 = DIRECTION ( 'NONE',  ( -0.0000000000000000000, -0.0000000000000000000, -1.000000000000000000 ) ) ;
#98 = AXIS2_PLACEMENT_3D ( 'NONE', #260, #332, #70 ) ;
#99 = ORIENTED_EDGE ( 'NONE', *, *, #238, .F. ) ;
#100 = DIRECTION ( 'NONE',  ( 1.000000000000000000, 0.0000000000000000000, 0.0000000000000000000 ) ) ;
#101 = CARTESIAN_POINT ( 'NONE',  ( 6.824561403508774000, -1.787606525031409700, 500.0000000000000000 ) ) ;
#102 = COORDINATED_UNIVERSAL_TIME_OFFSET ( 9, 0, .AHEAD. ) ;
#103 = CYLINDRICAL_SURFACE ( 'NONE', #180, 0.5000000000000004400 ) ;
#104 = ORIENTED_EDGE ( 'NONE', *, *, #174, .F. ) ;
#105 = CARTESIAN_POINT ( 'NONE',  ( 6.500000000000002700, 2.167948338867881300, -506.6468037431537300 ) ) ;
#106 = PERSON_AND_ORGANIZATION_ROLE ( 'creator' ) ;
#107 = VECTOR ( 'NONE', #17, 1000.000000000000000 ) ;
#108 = ORIENTED_EDGE ( 'NONE', *, *, #239, .F. ) ;
#109 = CC_DESIGN_APPROVAL ( #303, ( #287 ) ) ;
#110 = PRODUCT_DEFINITION_SHAPE ( 'NONE', 'NONE',  #335 ) ;
#111 = CARTESIAN_POINT ( 'NONE',  ( 10.69999999999999900, 0.0000000000000000000, 500.0000000000000000 ) ) ;
#112 = LOCAL_TIME ( 15, 15, 47.00000000000000000, #199 ) ;
#113 = FACE_OUTER_BOUND ( 'NONE', #405, .T. ) ;
#114 = EDGE_LOOP ( 'NONE', ( #37, #104, #47, #5 ) ) ;
#115 = PLANE ( 'NONE',  #35 ) ;
#116 = DIRECTION ( 'NONE',  ( -1.000000000000000000, -0.0000000000000000000, -0.0000000000000000000 ) ) ;
#117 = CIRCLE ( 'NONE', #247, 2.349999999999999600 ) ;
#118 = ORIENTED_EDGE ( 'NONE', *, *, #192, .F. ) ;
#119 = MANIFOLD_SOLID_BREP ( 'ÎÞ½ - µoµ2', #189 ) ;
#120 = ORIENTED_EDGE ( 'NONE', *, *, #2, .F. ) ;
#121 = CARTESIAN_POINT ( 'NONE',  ( 6.000000000000000900, -2.499999999999999600, 500.0000000000000000 ) ) ;
#122 = DIRECTION ( 'NONE',  ( 1.734723475976807100E-016, -1.000000000000000000, 0.0000000000000000000 ) ) ;
#123 = ADVANCED_FACE ( 'NONE', ( #200 ), #390, .F. ) ;
#124 = APPROVAL_DATE_TIME ( #207, #28 ) ;
#125 = VECTOR ( 'NONE', #293, 1000.000000000000000 ) ;
#126 = ORIENTED_EDGE ( 'NONE', *, *, #279, .F. ) ;
#127 = DIRECTION ( 'NONE',  ( -0.0000000000000000000, -0.0000000000000000000, -1.000000000000000000 ) ) ;
#128 = DIRECTION ( 'NONE',  ( -1.000000000000000000, -1.734723475976807100E-016, 0.0000000000000000000 ) ) ;
#129 = APPROVAL_STATUS ( 'not_yet_approved' ) ;
#130 = CIRCLE ( 'NONE', #259, 0.5000000000000004400 ) ;
#131 = ORIENTED_EDGE ( 'NONE', *, *, #88, .F. ) ;
#132 = EDGE_CURVE ( 'NONE', #18, #394, #291, .T. ) ;
#133 = CC_DESIGN_APPROVAL ( #28, ( #41 ) ) ;
#134 = APPROVAL_ROLE ( '' ) ;
#135 = APPROVAL_PERSON_ORGANIZATION ( #219, #28, #304 ) ;
#136 = FACE_OUTER_BOUND ( 'NONE', #95, .T. ) ;
#137 = VERTEX_POINT ( 'NONE', #64 ) ;
#138 = DIRECTION ( 'NONE',  ( 1.000000000000000000, 0.0000000000000000000, 0.0000000000000000000 ) ) ;
#139 = CARTESIAN_POINT ( 'NONE',  ( -5.999999999999999100, -2.499999999999999600, 500.0000000000000000 ) ) ;
#140 = CC_DESIGN_PERSON_AND_ORGANIZATION_ASSIGNMENT ( #78, #297, ( #89 ) ) ;
#141 = VECTOR ( 'NONE', #343, 1000.000000000000000 ) ;
#142 = ORIENTED_EDGE ( 'NONE', *, *, #280, .T. ) ;
#143 = AXIS2_PLACEMENT_3D ( 'NONE', #195, #30, #34 ) ;
#144 = COORDINATED_UNIVERSAL_TIME_OFFSET ( 9, 0, .AHEAD. ) ;
#145 = FACE_OUTER_BOUND ( 'NONE', #14, .T. ) ;
#146 = ORIENTED_EDGE ( 'NONE', *, *, #241, .T. ) ;
#147 = ORIENTED_EDGE ( 'NONE', *, *, #376, .F. ) ;
#148 = PLANE ( 'NONE',  #218 ) ;
#149 = VECTOR ( 'NONE', #97, 1000.000000000000000 ) ;
#150 = ORIENTED_EDGE ( 'NONE', *, *, #192, .T. ) ;
#151 = UNCERTAINTY_MEASURE_WITH_UNIT (LENGTH_MEASURE( 1.000000000000000100E-005 ), #249, 'distance_accuracy_value', 'NONE');
#152 = PERSON ( 'UNSPECIFIED', 'UNSPECIFIED', 'UNSPECIFIED', ('UNSPECIFIED'), ('UNSPECIFIED'), ('UNSPECIFIED') ) ;
#153 = DIRECTION ( 'NONE',  ( 1.000000000000000000, 0.0000000000000000000, 0.0000000000000000000 ) ) ;
#154 = LOCAL_TIME ( 15, 15, 47.00000000000000000, #243 ) ;
#155 = EDGE_LOOP ( 'NONE', ( #277, #363, #147, #248 ) ) ;
#156 = VERTEX_POINT ( 'NONE', #85 ) ;
#157 = DIRECTION ( 'NONE',  ( 1.000000000000000000, 0.0000000000000000000, 0.0000000000000000000 ) ) ;
#158 = ADVANCED_FACE ( 'NONE', ( #113 ), #26, .F. ) ;
#159 = AXIS2_PLACEMENT_3D ( 'NONE', #166, #19, #360 ) ;
#160 = LINE ( 'NONE', #294, #326 ) ;
#161 = EDGE_LOOP ( 'NONE', ( #120, #367, #87, #284 ) ) ;
#162 = AXIS2_PLACEMENT_3D ( 'NONE', #186, #53, #100 ) ;
#163 = ADVANCED_FACE ( 'NONE', ( #43 ), #103, .F. ) ;
#164 = DATE_TIME_ROLE ( 'classification_date' ) ;
#165 = ORGANIZATION ( 'UNSPECIFIED', 'UNSPECIFIED', '' ) ;
#166 = CARTESIAN_POINT ( 'NONE',  ( 8.349999999999999600, 0.0000000000000000000, -500.0000000000000000 ) ) ;
#167 = CARTESIAN_POINT ( 'NONE',  ( 0.0000000000000000000, 0.0000000000000000000, 0.0000000000000000000 ) ) ;
#168 = CARTESIAN_POINT ( 'NONE',  ( 6.000000000000000900, -2.167948338867881300, -500.0000000000000000 ) ) ;
#169 = APPROVAL ( #129, 'UNSPECIFIED' ) ;
#170 = CYLINDRICAL_SURFACE ( 'NONE', #230, 2.349999999999999600 ) ;
#171 = VERTEX_POINT ( 'NONE', #278 ) ;
#172 = PERSON_AND_ORGANIZATION_ROLE ( 'creator' ) ;
#173 = EDGE_CURVE ( 'NONE', #62, #261, #188, .T. ) ;
#174 = EDGE_CURVE ( 'NONE', #56, #194, #32, .T. ) ;
#175 = CC_DESIGN_PERSON_AND_ORGANIZATION_ASSIGNMENT ( #373, #341, ( #41 ) ) ;
#176 = ORIENTED_EDGE ( 'NONE', *, *, #173, .T. ) ;
#177 = APPROVAL_DATE_TIME ( #266, #303 ) ;
#178 = VECTOR ( 'NONE', #181, 1000.000000000000000 ) ;
#179 = ORIENTED_EDGE ( 'NONE', *, *, #279, .T. ) ;
#180 = AXIS2_PLACEMENT_3D ( 'NONE', #410, #251, #153 ) ;
#181 = DIRECTION ( 'NONE',  ( -1.734723475976807100E-016, 1.000000000000000000, -0.0000000000000000000 ) ) ;
#182 = AXIS2_PLACEMENT_3D ( 'NONE', #378, #13, #217 ) ;
#183 = CARTESIAN_POINT ( 'NONE',  ( 6.000000000000000000, 2.500000000000000400, 500.0000000000000000 ) ) ;
#184 = EDGE_LOOP ( 'NONE', ( #108, #142, #126, #68 ) ) ;
#185 = DIRECTION ( 'NONE',  ( -1.734723475976807100E-016, 1.000000000000000000, -0.0000000000000000000 ) ) ;
#186 = CARTESIAN_POINT ( 'NONE',  ( 8.349999999999999600, 0.0000000000000000000, -500.0000000000000000 ) ) ;
#187 = APPROVAL_PERSON_ORGANIZATION ( #275, #303, #69 ) ;
#188 = LINE ( 'NONE', #383, #24 ) ;
#189 = CLOSED_SHELL ( 'NONE', ( #253, #67, #158, #96, #93, #361, #330, #123, #6, #225, #163 ) ) ;
#190 = DIRECTION ( 'NONE',  ( 0.0000000000000000000, 0.0000000000000000000, 1.000000000000000000 ) ) ;
#191 = APPROVAL_STATUS ( 'not_yet_approved' ) ;
#192 = EDGE_CURVE ( 'NONE', #261, #18, #366, .T. ) ;
#193 = LINE ( 'NONE', #400, #107 ) ;
#194 = VERTEX_POINT ( 'NONE', #296 ) ;
#195 = CARTESIAN_POINT ( 'NONE',  ( 6.500000000000002700, -2.167948338867881300, -500.0000000000000000 ) ) ;
#196 = EDGE_CURVE ( 'NONE', #156, #409, #94, .T. ) ;
#197 = DIRECTION ( 'NONE',  ( 0.0000000000000000000, -0.0000000000000000000, 1.000000000000000000 ) ) ;
#198 =( NAMED_UNIT ( * ) SI_UNIT ( $, .STERADIAN. ) SOLID_ANGLE_UNIT ( ) );
#199 = COORDINATED_UNIVERSAL_TIME_OFFSET ( 9, 0, .AHEAD. ) ;
#200 = FACE_OUTER_BOUND ( 'NONE', #79, .T. ) ;
#201 = ORIENTED_EDGE ( 'NONE', *, *, #308, .T. ) ;
#202 = DIRECTION ( 'NONE',  ( 0.0000000000000000000, 0.0000000000000000000, 1.000000000000000000 ) ) ;
#203 = VECTOR ( 'NONE', #116, 1000.000000000000000 ) ;
#204 = ORIENTED_EDGE ( 'NONE', *, *, #310, .F. ) ;
#205 = PERSON_AND_ORGANIZATION_ROLE ( 'classification_officer' ) ;
#206 = AXIS2_PLACEMENT_3D ( 'NONE', #344, #274, #81 ) ;
#207 = DATE_AND_TIME ( #299, #384 ) ;
#208 = FACE_OUTER_BOUND ( 'NONE', #155, .T. ) ;
#209 =( GEOMETRIC_REPRESENTATION_CONTEXT ( 3 ) GLOBAL_UNCERTAINTY_ASSIGNED_CONTEXT ( ( #151 ) ) GLOBAL_UNIT_ASSIGNED_CONTEXT ( ( #249, #265, #198 ) ) REPRESENTATION_CONTEXT ( 'NONE', 'WORKASPACE' ) );
#210 = ORIENTED_EDGE ( 'NONE', *, *, #238, .T. ) ;
#211 = PLANE ( 'NONE',  #242 ) ;
#212 = AXIS2_PLACEMENT_3D ( 'NONE', #354, #323, #356 ) ;
#213 = LINE ( 'NONE', #90, #36 ) ;
#214 = ORIENTED_EDGE ( 'NONE', *, *, #271, .T. ) ;
#215 = CARTESIAN_POINT ( 'NONE',  ( -6.000000000000000000, 2.500000000000000400, 500.0000000000000000 ) ) ;
#216 = CARTESIAN_POINT ( 'NONE',  ( 6.824561403508774000, -1.787606525031409700, -506.6468037431537300 ) ) ;
#217 = DIRECTION ( 'NONE',  ( 1.000000000000000000, 0.0000000000000000000, 0.0000000000000000000 ) ) ;
#218 = AXIS2_PLACEMENT_3D ( 'NONE', #57, #282, #252 ) ;
#219 = PERSON_AND_ORGANIZATION ( #152, #165 ) ;
#220 = VECTOR ( 'NONE', #254, 1000.000000000000000 ) ;
#221 = VERTEX_POINT ( 'NONE', #346 ) ;
#222 = APPROVAL_STATUS ( 'not_yet_approved' ) ;
#223 = DIRECTION ( 'NONE',  ( -0.0000000000000000000, -0.0000000000000000000, -1.000000000000000000 ) ) ;
#224 = DIRECTION ( 'NONE',  ( 0.0000000000000000000, 0.0000000000000000000, 1.000000000000000000 ) ) ;
#225 = ADVANCED_FACE ( 'NONE', ( #358 ), #170, .T. ) ;
#226 = LINE ( 'NONE', #8, #141 ) ;
#227 = ORIENTED_EDGE ( 'NONE', *, *, #350, .T. ) ;
#228 = CARTESIAN_POINT ( 'NONE',  ( 6.000000000000000900, -2.499999999999999600, 500.0000000000000000 ) ) ;
#229 = DIRECTION ( 'NONE',  ( 1.734723475976807100E-016, -1.000000000000000000, 0.0000000000000000000 ) ) ;
#230 = AXIS2_PLACEMENT_3D ( 'NONE', #321, #224, #315 ) ;
#231 = DIRECTION ( 'NONE',  ( 0.0000000000000000000, 0.0000000000000000000, 1.000000000000000000 ) ) ;
#232 = PERSON_AND_ORGANIZATION ( #152, #165 ) ;
#233 = CIRCLE ( 'NONE', #162, 2.349999999999999600 ) ;
#234 = ORIENTED_EDGE ( 'NONE', *, *, #132, .T. ) ;
#235 = CARTESIAN_POINT ( 'NONE',  ( 8.349999999999999600, 0.0000000000000000000, 500.0000000000000000 ) ) ;
#236 = LINE ( 'NONE', #216, #403 ) ;
#237 = ORIENTED_EDGE ( 'NONE', *, *, #38, .T. ) ;
#238 = EDGE_CURVE ( 'NONE', #359, #261, #345, .T. ) ;
#239 = EDGE_CURVE ( 'NONE', #379, #407, #256, .T. ) ;
#240 = DIRECTION ( 'NONE',  ( 1.000000000000000000, 0.0000000000000000000, 0.0000000000000000000 ) ) ;
#241 = EDGE_CURVE ( 'NONE', #407, #221, #86, .T. ) ;
#242 = AXIS2_PLACEMENT_3D ( 'NONE', #273, #263, #269 ) ;
#243 = COORDINATED_UNIVERSAL_TIME_OFFSET ( 9, 0, .AHEAD. ) ;
#244 = ORIENTED_EDGE ( 'NONE', *, *, #334, .T. ) ;
#245 = ORIENTED_EDGE ( 'NONE', *, *, #196, .T. ) ;
#246 = FACE_OUTER_BOUND ( 'NONE', #161, .T. ) ;
#247 = AXIS2_PLACEMENT_3D ( 'NONE', #235, #45, #138 ) ;
#248 = ORIENTED_EDGE ( 'NONE', *, *, #48, .T. ) ;
#249 =( LENGTH_UNIT ( ) NAMED_UNIT ( * ) SI_UNIT ( .MILLI., .METRE. ) );
#250 = CC_DESIGN_PERSON_AND_ORGANIZATION_ASSIGNMENT ( #232, #172, ( #335 ) ) ;
#251 = DIRECTION ( 'NONE',  ( 0.0000000000000000000, 0.0000000000000000000, 1.000000000000000000 ) ) ;
#252 = DIRECTION ( 'NONE',  ( 1.000000000000000000, 0.0000000000000000000, 0.0000000000000000000 ) ) ;
#253 = ADVANCED_FACE ( 'NONE', ( #246 ), #408, .T. ) ;
#254 = DIRECTION ( 'NONE',  ( -1.734723475976807100E-016, 1.000000000000000000, -0.0000000000000000000 ) ) ;
#255 = PLANE ( 'NONE',  #318 ) ;
#256 = CIRCLE ( 'NONE', #143, 0.5000000000000004400 ) ;
#257 = ORIENTED_EDGE ( 'NONE', *, *, #286, .F. ) ;
#258 = AXIS2_PLACEMENT_3D ( 'NONE', #105, #298, #289 ) ;
#259 = AXIS2_PLACEMENT_3D ( 'NONE', #22, #270, #240 ) ;
#260 = CARTESIAN_POINT ( 'NONE',  ( 6.000000000000000000, 2.500000000000000400, 500.0000000000000000 ) ) ;
#261 = VERTEX_POINT ( 'NONE', #40 ) ;
#262 = EDGE_CURVE ( 'NONE', #156, #18, #160, .T. ) ;
#263 = DIRECTION ( 'NONE',  ( 0.0000000000000000000, -1.000000000000000000, 0.0000000000000000000 ) ) ;
#264 = DIRECTION ( 'NONE',  ( 0.0000000000000000000, 0.0000000000000000000, 1.000000000000000000 ) ) ;
#265 =( NAMED_UNIT ( * ) PLANE_ANGLE_UNIT ( ) SI_UNIT ( $, .RADIAN. ) );
#266 = DATE_AND_TIME ( #357, #23 ) ;
#267 = VECTOR ( 'NONE', #82, 1000.000000000000000 ) ;
#268 = ORIENTED_EDGE ( 'NONE', *, *, #271, .F. ) ;
#269 = DIRECTION ( 'NONE',  ( 0.0000000000000000000, -0.0000000000000000000, -1.000000000000000000 ) ) ;
#270 = DIRECTION ( 'NONE',  ( -0.0000000000000000000, 0.0000000000000000000, 1.000000000000000000 ) ) ;
#271 = EDGE_CURVE ( 'NONE', #328, #221, #75, .T. ) ;
#272 = ORIENTED_EDGE ( 'NONE', *, *, #239, .T. ) ;
#273 = CARTESIAN_POINT ( 'NONE',  ( -6.000000000000000000, 2.500000000000000400, 500.0000000000000000 ) ) ;
#274 = DIRECTION ( 'NONE',  ( -0.0000000000000000000, -0.0000000000000000000, -1.000000000000000000 ) ) ;
#275 = PERSON_AND_ORGANIZATION ( #152, #165 ) ;
#276 = VECTOR ( 'NONE', #127, 1000.000000000000000 ) ;
#277 = ORIENTED_EDGE ( 'NONE', *, *, #286, .T. ) ;
#278 = CARTESIAN_POINT ( 'NONE',  ( 6.824561403508773200, 1.787606525031410800, 500.0000000000000000 ) ) ;
#279 = EDGE_CURVE ( 'NONE', #221, #336, #9, .T. ) ;
#280 = EDGE_CURVE ( 'NONE', #379, #336, #236, .T. ) ;
#281 = FACE_OUTER_BOUND ( 'NONE', #10, .T. ) ;
#282 = DIRECTION ( 'NONE',  ( -0.0000000000000000000, 0.0000000000000000000, 1.000000000000000000 ) ) ;
#283 = VERTEX_POINT ( 'NONE', #111 ) ;
#284 = ORIENTED_EDGE ( 'NONE', *, *, #280, .F. ) ;
#285 = CARTESIAN_POINT ( 'NONE',  ( 6.000000000000000000, 2.167948338867881300, -506.6468037431537300 ) ) ;
#286 = EDGE_CURVE ( 'NONE', #394, #319, #226, .T. ) ;
#287 = SECURITY_CLASSIFICATION ( '', '', #338 ) ;
#288 = DIRECTION ( 'NONE',  ( 1.000000000000000000, 1.734723475976807100E-016, -0.0000000000000000000 ) ) ;
#289 = DIRECTION ( 'NONE',  ( 1.000000000000000000, 0.0000000000000000000, 0.0000000000000000000 ) ) ;
#290 = PERSON_AND_ORGANIZATION ( #152, #165 ) ;
#291 = LINE ( 'NONE', #352, #300 ) ;
#292 = ORIENTED_EDGE ( 'NONE', *, *, #88, .T. ) ;
#293 = DIRECTION ( 'NONE',  ( -1.734723475976807100E-016, 1.000000000000000000, -0.0000000000000000000 ) ) ;
#294 = CARTESIAN_POINT ( 'NONE',  ( -6.000000000000000000, 2.500000000000000400, 500.0000000000000000 ) ) ;
#295 = EDGE_LOOP ( 'NONE', ( #131, #204, #176, #99 ) ) ;
#296 = CARTESIAN_POINT ( 'NONE',  ( 10.69999999999999900, 0.0000000000000000000, -500.0000000000000000 ) ) ;
#297 = PERSON_AND_ORGANIZATION_ROLE ( 'design_owner' ) ;
#298 = DIRECTION ( 'NONE',  ( 0.0000000000000000000, 0.0000000000000000000, 1.000000000000000000 ) ) ;
#299 = CALENDAR_DATE ( 2017, 25, 9 ) ;
#300 = VECTOR ( 'NONE', #122, 1000.000000000000000 ) ;
#301 = ORIENTED_EDGE ( 'NONE', *, *, #20, .T. ) ;
#302 = MECHANICAL_CONTEXT ( 'NONE', #401, 'mechanical' ) ;
#303 = APPROVAL ( #222, 'UNSPECIFIED' ) ;
#304 = APPROVAL_ROLE ( '' ) ;
#305 = ADVANCED_BREP_SHAPE_REPRESENTATION ( 'sone3D', ( #119, #80 ), #209 ) ;
#306 = VECTOR ( 'NONE', #386, 1000.000000000000000 ) ;
#307 = ORIENTED_EDGE ( 'NONE', *, *, #376, .T. ) ;
#308 = EDGE_CURVE ( 'NONE', #328, #319, #317, .T. ) ;
#309 = PRODUCT_RELATED_PRODUCT_CATEGORY ( 'detail', '', ( #89 ) ) ;
#310 = EDGE_CURVE ( 'NONE', #62, #137, #66, .T. ) ;
#311 = DATE_AND_TIME ( #397, #60 ) ;
#312 = CYLINDRICAL_SURFACE ( 'NONE', #258, 0.5000000000000004400 ) ;
#313 = CARTESIAN_POINT ( 'NONE',  ( 6.824561403508774000, -1.787606525031409700, -500.0000000000000000 ) ) ;
#314 = ORIENTED_EDGE ( 'NONE', *, *, #38, .F. ) ;
#315 = DIRECTION ( 'NONE',  ( 1.000000000000000000, 0.0000000000000000000, 0.0000000000000000000 ) ) ;
#316 = DESIGN_CONTEXT ( 'detailed design', #402, 'design' ) ;
#317 = LINE ( 'NONE', #228, #149 ) ;
#318 = AXIS2_PLACEMENT_3D ( 'NONE', #92, #128, #355 ) ;
#319 = VERTEX_POINT ( 'NONE', #29 ) ;
#320 = CARTESIAN_POINT ( 'NONE',  ( -5.999999999999999100, -2.499999999999999600, 500.0000000000000000 ) ) ;
#321 = CARTESIAN_POINT ( 'NONE',  ( 8.349999999999999600, 0.0000000000000000000, -506.6468037431537300 ) ) ;
#322 = APPROVAL_DATE_TIME ( #406, #169 ) ;
#323 = DIRECTION ( 'NONE',  ( -0.0000000000000000000, -0.0000000000000000000, -1.000000000000000000 ) ) ;
#324 = LINE ( 'NONE', #389, #125 ) ;
#325 = DIRECTION ( 'NONE',  ( 0.0000000000000000000, 1.000000000000000000, 0.0000000000000000000 ) ) ;
#326 = VECTOR ( 'NONE', #395, 1000.000000000000000 ) ;
#327 = APPLICATION_PROTOCOL_DEFINITION ( 'international standard', 'config_control_design', 1994, #402 ) ;
#328 = VERTEX_POINT ( 'NONE', #121 ) ;
#329 = CARTESIAN_POINT ( 'NONE',  ( 6.000000000000000000, 2.500000000000000400, -500.0000000000000000 ) ) ;
#330 = ADVANCED_FACE ( 'NONE', ( #54 ), #148, .T. ) ;
#331 = EDGE_CURVE ( 'NONE', #56, #171, #46, .T. ) ;
#332 = DIRECTION ( 'NONE',  ( -1.000000000000000000, -1.734723475976807100E-016, 0.0000000000000000000 ) ) ;
#333 = APPROVAL_PERSON_ORGANIZATION ( #3, #169, #134 ) ;
#334 = EDGE_CURVE ( 'NONE', #62, #56, #130, .T. ) ;
#335 = PRODUCT_DEFINITION ( 'UNKNOWN', '', #41, #316 ) ;
#336 = VERTEX_POINT ( 'NONE', #101 ) ;
#337 = AXIS2_PLACEMENT_3D ( 'NONE', #382, #348, #157 ) ;
#338 = SECURITY_CLASSIFICATION_LEVEL ( 'unclassified' ) ;
#339 = VECTOR ( 'NONE', #231, 1000.000000000000000 ) ;
#340 = ORIENTED_EDGE ( 'NONE', *, *, #196, .F. ) ;
#341 = PERSON_AND_ORGANIZATION_ROLE ( 'design_supplier' ) ;
#342 = CC_DESIGN_APPROVAL ( #169, ( #335 ) ) ;
#343 = DIRECTION ( 'NONE',  ( 1.000000000000000000, 0.0000000000000000000, 0.0000000000000000000 ) ) ;
#344 = CARTESIAN_POINT ( 'NONE',  ( 6.500000000000002700, -2.167948338867881300, 500.0000000000000000 ) ) ;
#345 = LINE ( 'NONE', #59, #276 ) ;
#346 = CARTESIAN_POINT ( 'NONE',  ( 6.000000000000000900, -2.167948338867881300, 500.0000000000000000 ) ) ;
#347 = ORIENTED_EDGE ( 'NONE', *, *, #331, .F. ) ;
#348 = DIRECTION ( 'NONE',  ( -0.0000000000000000000, 0.0000000000000000000, 1.000000000000000000 ) ) ;
#349 = CARTESIAN_POINT ( 'NONE',  ( 6.000000000000000000, -2.167948338867881300, -506.6468037431537300 ) ) ;
#350 = EDGE_CURVE ( 'NONE', #359, #156, #377, .T. ) ;
#351 = EDGE_LOOP ( 'NONE', ( #245, #307, #214, #179, #33, #301, #25, #292, #227 ) ) ;
#352 = CARTESIAN_POINT ( 'NONE',  ( -6.000000000000000000, 2.500000000000000400, -500.0000000000000000 ) ) ;
#353 = EDGE_CURVE ( 'NONE', #194, #283, #213, .T. ) ;
#354 = CARTESIAN_POINT ( 'NONE',  ( 6.500000000000002700, 2.167948338867881300, 500.0000000000000000 ) ) ;
#355 = DIRECTION ( 'NONE',  ( 1.734723475976807100E-016, -1.000000000000000000, 0.0000000000000000000 ) ) ;
#356 = DIRECTION ( 'NONE',  ( -1.000000000000000000, 0.0000000000000000000, 0.0000000000000000000 ) ) ;
#357 = CALENDAR_DATE ( 2017, 25, 9 ) ;
#358 = FACE_OUTER_BOUND ( 'NONE', #114, .T. ) ;
#359 = VERTEX_POINT ( 'NONE', #183 ) ;
#360 = DIRECTION ( 'NONE',  ( 1.000000000000000000, 0.0000000000000000000, 0.0000000000000000000 ) ) ;
#361 = ADVANCED_FACE ( 'NONE', ( #281 ), #211, .F. ) ;
#362 = CIRCLE ( 'NONE', #380, 2.349999999999999600 ) ;
#363 = ORIENTED_EDGE ( 'NONE', *, *, #308, .F. ) ;
#364 = CARTESIAN_POINT ( 'NONE',  ( -5.999999999999999100, -2.499999999999999600, -500.0000000000000000 ) ) ;
#365 = DATE_AND_TIME ( #31, #112 ) ;
#366 = LINE ( 'NONE', #372, #267 ) ;
#367 = ORIENTED_EDGE ( 'NONE', *, *, #353, .T. ) ;
#368 = APPLICATION_PROTOCOL_DEFINITION ( 'international standard', 'config_control_design', 1994, #401 ) ;
#369 = EDGE_CURVE ( 'NONE', #336, #283, #117, .T. ) ;
#370 = SHAPE_DEFINITION_REPRESENTATION ( #110, #305 ) ;
#371 = ORIENTED_EDGE ( 'NONE', *, *, #334, .F. ) ;
#372 = CARTESIAN_POINT ( 'NONE',  ( -6.000000000000000000, 2.500000000000000400, -500.0000000000000000 ) ) ;
#373 = PERSON_AND_ORGANIZATION ( #152, #165 ) ;
#374 = FACE_OUTER_BOUND ( 'NONE', #295, .T. ) ;
#375 = ORIENTED_EDGE ( 'NONE', *, *, #174, .T. ) ;
#376 = EDGE_CURVE ( 'NONE', #409, #328, #193, .T. ) ;
#377 = LINE ( 'NONE', #50, #203 ) ;
#378 = CARTESIAN_POINT ( 'NONE',  ( 8.349999999999999600, 0.0000000000000000000, -506.6468037431537300 ) ) ;
#379 = VERTEX_POINT ( 'NONE', #313 ) ;
#380 = AXIS2_PLACEMENT_3D ( 'NONE', #391, #190, #91 ) ;
#381 = CC_DESIGN_DATE_AND_TIME_ASSIGNMENT ( #311, #392, ( #335 ) ) ;
#382 = CARTESIAN_POINT ( 'NONE',  ( 0.0000000000000000000, 0.0000000000000000000, -500.0000000000000000 ) ) ;
#383 = CARTESIAN_POINT ( 'NONE',  ( 6.000000000000000000, 2.500000000000000400, -500.0000000000000000 ) ) ;
#384 = LOCAL_TIME ( 15, 15, 47.00000000000000000, #49 ) ;
#385 = CIRCLE ( 'NONE', #212, 0.5000000000000004400 ) ;
#386 = DIRECTION ( 'NONE',  ( 0.0000000000000000000, 0.0000000000000000000, 1.000000000000000000 ) ) ;
#387 = ORIENTED_EDGE ( 'NONE', *, *, #48, .F. ) ;
#388 = CARTESIAN_POINT ( 'NONE',  ( 6.824561403508773200, 1.787606525031410800, -500.0000000000000000 ) ) ;
#389 = CARTESIAN_POINT ( 'NONE',  ( 6.000000000000000000, 2.500000000000000400, 500.0000000000000000 ) ) ;
#390 = PLANE ( 'NONE',  #337 ) ;
#391 = CARTESIAN_POINT ( 'NONE',  ( 8.349999999999999600, 0.0000000000000000000, 500.0000000000000000 ) ) ;
#392 = DATE_TIME_ROLE ( 'creation_date' ) ;
#393 = VECTOR ( 'NONE', #264, 1000.000000000000000 ) ;
#394 = VERTEX_POINT ( 'NONE', #364 ) ;
#395 = DIRECTION ( 'NONE',  ( -0.0000000000000000000, -0.0000000000000000000, -1.000000000000000000 ) ) ;
#396 = CARTESIAN_POINT ( 'NONE',  ( 6.824561403508773200, 1.787606525031410800, -506.6468037431537300 ) ) ;
#397 = CALENDAR_DATE ( 2017, 25, 9 ) ;
#398 = LINE ( 'NONE', #329, #220 ) ;
#399 = ORIENTED_EDGE ( 'NONE', *, *, #71, .F. ) ;
#400 = CARTESIAN_POINT ( 'NONE',  ( -5.999999999999999100, -2.499999999999999600, 500.0000000000000000 ) ) ;
#401 = APPLICATION_CONTEXT ( 'configuration controlled 3d designs of mechanical parts and assemblies' ) ;
#402 = APPLICATION_CONTEXT ( 'configuration controlled 3d designs of mechanical parts and assemblies' ) ;
#403 = VECTOR ( 'NONE', #84, 1000.000000000000000 ) ;
#404 = AXIS2_PLACEMENT_3D ( 'NONE', #215, #288, #1 ) ;
#405 = EDGE_LOOP ( 'NONE', ( #234, #387, #340, #44 ) ) ;
#406 = DATE_AND_TIME ( #72, #154 ) ;
#407 = VERTEX_POINT ( 'NONE', #168 ) ;
#408 = CYLINDRICAL_SURFACE ( 'NONE', #182, 2.349999999999999600 ) ;
#409 = VERTEX_POINT ( 'NONE', #139 ) ;
#410 = CARTESIAN_POINT ( 'NONE',  ( 6.500000000000002700, -2.167948338867881300, -506.6468037431537300 ) ) ;
ENDSEC;
END-ISO-10303-21;
