ISO-10303-21;
HEADER;
FILE_DESCRIPTION (( 'STEP AP203' ),
    '1' );
FILE_NAME ('sone3D.STEP',
    '2017-11-02T06:21:03',
    ( '' ),
    ( '' ),
    'SwSTEP 2.0',
    'SolidWorks 2014',
    '' );
FILE_SCHEMA (( 'CONFIG_CONTROL_DESIGN' ));
ENDSEC;

DATA;
#1 = CC_DESIGN_SECURITY_CLASSIFICATION ( #20, ( #35 ) ) ;
#2 = CARTESIAN_POINT ( 'NONE',  ( 0.0000000000000000000, 0.0000000000000000000, 0.0000000000000000000 ) ) ;
#3 = CC_DESIGN_APPROVAL ( #6, ( #20 ) ) ;
#4 = CALENDAR_DATE ( 2017, 2, 11 ) ;
#5 = CARTESIAN_POINT ( 'NONE',  ( -2.500000000000002200, -2.499999999999998700, -500.0000000000000000 ) ) ;
#6 = APPROVAL ( #150, 'UNSPECIFIED' ) ;
#7 = LOCAL_TIME ( 15, 21, 3.000000000000000000, #65 ) ;
#8 = CALENDAR_DATE ( 2017, 2, 11 ) ;
#9 = PERSON_AND_ORGANIZATION ( #138, #102 ) ;
#10 = ORIENTED_EDGE ( 'NONE', *, *, #193, .T. ) ;
#11 = LOCAL_TIME ( 15, 21, 3.000000000000000000, #74 ) ;
#12 = CC_DESIGN_DATE_AND_TIME_ASSIGNMENT ( #195, #15, ( #20 ) ) ;
#13 = PLANE ( 'NONE',  #45 ) ;
#14 = CARTESIAN_POINT ( 'NONE',  ( -2.500000000000000400, 2.500000000000001300, 500.0000000000000000 ) ) ;
#15 = DATE_TIME_ROLE ( 'classification_date' ) ;
#16 =( LENGTH_UNIT ( ) NAMED_UNIT ( * ) SI_UNIT ( .MILLI., .METRE. ) );
#17 = FACE_OUTER_BOUND ( 'NONE', #164, .T. ) ;
#18 = CC_DESIGN_PERSON_AND_ORGANIZATION_ASSIGNMENT ( #158, #139, ( #20 ) ) ;
#19 = ORIENTED_EDGE ( 'NONE', *, *, #104, .F. ) ;
#20 = SECURITY_CLASSIFICATION ( '', '', #237 ) ;
#21 = LINE ( 'NONE', #115, #214 ) ;
#22 = ORIENTED_EDGE ( 'NONE', *, *, #169, .T. ) ;
#23 = CARTESIAN_POINT ( 'NONE',  ( -2.500000000000000400, 2.500000000000001300, 500.0000000000000000 ) ) ;
#24 = CC_DESIGN_PERSON_AND_ORGANIZATION_ASSIGNMENT ( #204, #118, ( #35 ) ) ;
#25 = EDGE_LOOP ( 'NONE', ( #134, #33, #205, #182 ) ) ;
#26 = CC_DESIGN_PERSON_AND_ORGANIZATION_ASSIGNMENT ( #9, #225, ( #35 ) ) ;
#27 = VECTOR ( 'NONE', #156, 1000.000000000000000 ) ;
#28 = ORIENTED_EDGE ( 'NONE', *, *, #196, .T. ) ;
#29 = CC_DESIGN_APPROVAL ( #34, ( #35 ) ) ;
#30 = DESIGN_CONTEXT ( 'detailed design', #187, 'design' ) ;
#31 = VECTOR ( 'NONE', #39, 1000.000000000000000 ) ;
#32 = VERTEX_POINT ( 'NONE', #36 ) ;
#33 = ORIENTED_EDGE ( 'NONE', *, *, #160, .F. ) ;
#34 = APPROVAL ( #202, 'UNSPECIFIED' ) ;
#35 = PRODUCT_DEFINITION_FORMATION_WITH_SPECIFIED_SOURCE ( 'ANY', '', #171, .NOT_KNOWN. ) ;
#36 = CARTESIAN_POINT ( 'NONE',  ( 2.499999999999998700, -2.499999999999998700, 500.0000000000000000 ) ) ;
#37 = PERSON_AND_ORGANIZATION ( #138, #102 ) ;
#38 = DIRECTION ( 'NONE',  ( 1.000000000000000000, -3.469446951953614200E-016, 0.0000000000000000000 ) ) ;
#39 = DIRECTION ( 'NONE',  ( -1.000000000000000000, -0.0000000000000000000, -0.0000000000000000000 ) ) ;
#40 = CC_DESIGN_DATE_AND_TIME_ASSIGNMENT ( #201, #119, ( #72 ) ) ;
#41 = DIRECTION ( 'NONE',  ( 1.000000000000000000, 0.0000000000000000000, 0.0000000000000000000 ) ) ;
#42 = APPROVAL_ROLE ( '' ) ;
#43 = VERTEX_POINT ( 'NONE', #60 ) ;
#44 =( NAMED_UNIT ( * ) SI_UNIT ( $, .STERADIAN. ) SOLID_ANGLE_UNIT ( ) );
#45 = AXIS2_PLACEMENT_3D ( 'NONE', #235, #38, #91 ) ;
#46 = CARTESIAN_POINT ( 'NONE',  ( -2.500000000000000400, 2.500000000000001300, -500.0000000000000000 ) ) ;
#47 = DIRECTION ( 'NONE',  ( -0.0000000000000000000, -0.0000000000000000000, -1.000000000000000000 ) ) ;
#48 = COORDINATED_UNIVERSAL_TIME_OFFSET ( 9, 0, .AHEAD. ) ;
#49 =( GEOMETRIC_REPRESENTATION_CONTEXT ( 3 ) GLOBAL_UNCERTAINTY_ASSIGNED_CONTEXT ( ( #95 ) ) GLOBAL_UNIT_ASSIGNED_CONTEXT ( ( #16, #151, #44 ) ) REPRESENTATION_CONTEXT ( 'NONE', 'WORKASPACE' ) );
#50 = DIRECTION ( 'NONE',  ( -3.469446951953614200E-016, 1.000000000000000000, -0.0000000000000000000 ) ) ;
#51 = ADVANCED_BREP_SHAPE_REPRESENTATION ( 'sone3D', ( #136, #66 ), #49 ) ;
#52 = FACE_OUTER_BOUND ( 'NONE', #212, .T. ) ;
#53 = PERSON_AND_ORGANIZATION ( #138, #102 ) ;
#54 = PRODUCT_RELATED_PRODUCT_CATEGORY ( 'detail', '', ( #171 ) ) ;
#55 = ADVANCED_FACE ( 'NONE', ( #191 ), #178, .T. ) ;
#56 = ADVANCED_FACE ( 'NONE', ( #145 ), #69, .F. ) ;
#57 = ORIENTED_EDGE ( 'NONE', *, *, #166, .F. ) ;
#58 = AXIS2_PLACEMENT_3D ( 'NONE', #216, #133, #147 ) ;
#59 = DIRECTION ( 'NONE',  ( 1.000000000000000000, 0.0000000000000000000, 0.0000000000000000000 ) ) ;
#60 = CARTESIAN_POINT ( 'NONE',  ( 2.499999999999996900, 2.500000000000001300, -500.0000000000000000 ) ) ;
#61 = EDGE_CURVE ( 'NONE', #175, #174, #236, .T. ) ;
#62 = PERSON_AND_ORGANIZATION_ROLE ( 'design_owner' ) ;
#63 = APPLICATION_PROTOCOL_DEFINITION ( 'international standard', 'config_control_design', 1994, #87 ) ;
#64 = LOCAL_TIME ( 15, 21, 3.000000000000000000, #113 ) ;
#65 = COORDINATED_UNIVERSAL_TIME_OFFSET ( 9, 0, .AHEAD. ) ;
#66 = AXIS2_PLACEMENT_3D ( 'NONE', #2, #149, #41 ) ;
#67 = DIRECTION ( 'NONE',  ( -0.0000000000000000000, -0.0000000000000000000, -1.000000000000000000 ) ) ;
#68 = LINE ( 'NONE', #148, #155 ) ;
#69 = PLANE ( 'NONE',  #125 ) ;
#70 = CC_DESIGN_PERSON_AND_ORGANIZATION_ASSIGNMENT ( #53, #62, ( #171 ) ) ;
#71 = APPROVAL_DATE_TIME ( #153, #34 ) ;
#72 = PRODUCT_DEFINITION ( 'UNKNOWN', '', #35, #30 ) ;
#73 = ORIENTED_EDGE ( 'NONE', *, *, #104, .T. ) ;
#74 = COORDINATED_UNIVERSAL_TIME_OFFSET ( 9, 0, .AHEAD. ) ;
#75 = ADVANCED_FACE ( 'NONE', ( #52 ), #79, .F. ) ;
#76 = APPROVAL ( #203, 'UNSPECIFIED' ) ;
#77 = ORIENTED_EDGE ( 'NONE', *, *, #169, .F. ) ;
#78 = CC_DESIGN_PERSON_AND_ORGANIZATION_ASSIGNMENT ( #37, #226, ( #72 ) ) ;
#79 = PLANE ( 'NONE',  #108 ) ;
#80 = VECTOR ( 'NONE', #47, 1000.000000000000000 ) ;
#81 = CC_DESIGN_APPROVAL ( #76, ( #72 ) ) ;
#82 = ORIENTED_EDGE ( 'NONE', *, *, #176, .F. ) ;
#83 = DIRECTION ( 'NONE',  ( 1.000000000000000000, 0.0000000000000000000, 0.0000000000000000000 ) ) ;
#84 = FACE_OUTER_BOUND ( 'NONE', #25, .T. ) ;
#85 = ORIENTED_EDGE ( 'NONE', *, *, #93, .F. ) ;
#86 = APPLICATION_PROTOCOL_DEFINITION ( 'international standard', 'config_control_design', 1994, #187 ) ;
#87 = APPLICATION_CONTEXT ( 'configuration controlled 3d designs of mechanical parts and assemblies' ) ;
#88 = ORIENTED_EDGE ( 'NONE', *, *, #160, .T. ) ;
#89 = CARTESIAN_POINT ( 'NONE',  ( -2.500000000000000400, 2.500000000000001300, 500.0000000000000000 ) ) ;
#90 = VECTOR ( 'NONE', #129, 1000.000000000000000 ) ;
#91 = DIRECTION ( 'NONE',  ( 3.469446951953614200E-016, 1.000000000000000000, 0.0000000000000000000 ) ) ;
#92 = ORIENTED_EDGE ( 'NONE', *, *, #196, .F. ) ;
#93 = EDGE_CURVE ( 'NONE', #32, #215, #186, .T. ) ;
#94 = APPROVAL_DATE_TIME ( #141, #76 ) ;
#95 = UNCERTAINTY_MEASURE_WITH_UNIT (LENGTH_MEASURE( 1.000000000000000100E-005 ), #16, 'distance_accuracy_value', 'NONE');
#96 = DIRECTION ( 'NONE',  ( 1.000000000000000000, 0.0000000000000000000, 0.0000000000000000000 ) ) ;
#97 = CARTESIAN_POINT ( 'NONE',  ( -2.500000000000000400, 2.500000000000001300, 500.0000000000000000 ) ) ;
#98 = CARTESIAN_POINT ( 'NONE',  ( 2.499999999999996900, 2.500000000000001300, 500.0000000000000000 ) ) ;
#99 = VECTOR ( 'NONE', #208, 1000.000000000000000 ) ;
#100 = APPROVAL_ROLE ( '' ) ;
#101 = APPROVAL_ROLE ( '' ) ;
#102 = ORGANIZATION ( 'UNSPECIFIED', 'UNSPECIFIED', '' ) ;
#103 = AXIS2_PLACEMENT_3D ( 'NONE', #98, #222, #117 ) ;
#104 = EDGE_CURVE ( 'NONE', #32, #174, #172, .T. ) ;
#105 = DIRECTION ( 'NONE',  ( 0.0000000000000000000, -0.0000000000000000000, -1.000000000000000000 ) ) ;
#106 = DIRECTION ( 'NONE',  ( 1.000000000000000000, 0.0000000000000000000, 0.0000000000000000000 ) ) ;
#107 = CARTESIAN_POINT ( 'NONE',  ( -2.500000000000002200, -2.499999999999998700, 500.0000000000000000 ) ) ;
#108 = AXIS2_PLACEMENT_3D ( 'NONE', #146, #197, #96 ) ;
#109 = DIRECTION ( 'NONE',  ( -0.0000000000000000000, -0.0000000000000000000, -1.000000000000000000 ) ) ;
#110 = LINE ( 'NONE', #230, #31 ) ;
#111 = EDGE_CURVE ( 'NONE', #174, #43, #21, .T. ) ;
#112 = APPROVAL_PERSON_ORGANIZATION ( #157, #34, #100 ) ;
#113 = COORDINATED_UNIVERSAL_TIME_OFFSET ( 9, 0, .AHEAD. ) ;
#114 = APPROVAL_DATE_TIME ( #159, #6 ) ;
#115 = CARTESIAN_POINT ( 'NONE',  ( 2.499999999999996900, 2.500000000000001300, -500.0000000000000000 ) ) ;
#116 = DIRECTION ( 'NONE',  ( 0.0000000000000000000, -1.000000000000000000, 0.0000000000000000000 ) ) ;
#117 = DIRECTION ( 'NONE',  ( 3.469446951953614200E-016, -1.000000000000000000, 0.0000000000000000000 ) ) ;
#118 = PERSON_AND_ORGANIZATION_ROLE ( 'design_supplier' ) ;
#119 = DATE_TIME_ROLE ( 'creation_date' ) ;
#120 = VECTOR ( 'NONE', #109, 1000.000000000000000 ) ;
#121 = ORIENTED_EDGE ( 'NONE', *, *, #122, .T. ) ;
#122 = EDGE_CURVE ( 'NONE', #227, #217, #219, .T. ) ;
#123 = APPROVAL_PERSON_ORGANIZATION ( #165, #6, #42 ) ;
#124 = CARTESIAN_POINT ( 'NONE',  ( 2.499999999999996900, 2.500000000000001300, 500.0000000000000000 ) ) ;
#125 = AXIS2_PLACEMENT_3D ( 'NONE', #97, #116, #105 ) ;
#126 = ADVANCED_FACE ( 'NONE', ( #17 ), #200, .F. ) ;
#127 = ORIENTED_EDGE ( 'NONE', *, *, #189, .F. ) ;
#128 = CARTESIAN_POINT ( 'NONE',  ( -2.500000000000002200, -2.499999999999998700, 500.0000000000000000 ) ) ;
#129 = DIRECTION ( 'NONE',  ( -3.469446951953614200E-016, -1.000000000000000000, 0.0000000000000000000 ) ) ;
#130 = VECTOR ( 'NONE', #183, 1000.000000000000000 ) ;
#131 = ORIENTED_EDGE ( 'NONE', *, *, #93, .T. ) ;
#132 = ADVANCED_FACE ( 'NONE', ( #84 ), #13, .F. ) ;
#133 = DIRECTION ( 'NONE',  ( 0.0000000000000000000, 1.000000000000000000, 0.0000000000000000000 ) ) ;
#134 = ORIENTED_EDGE ( 'NONE', *, *, #166, .T. ) ;
#135 = LINE ( 'NONE', #144, #90 ) ;
#136 = MANIFOLD_SOLID_BREP ( 'ÎÞ½ - µoµ1', #177 ) ;
#137 = EDGE_LOOP ( 'NONE', ( #229, #19, #92, #88 ) ) ;
#138 = PERSON ( 'UNSPECIFIED', 'UNSPECIFIED', 'UNSPECIFIED', ('UNSPECIFIED'), ('UNSPECIFIED'), ('UNSPECIFIED') ) ;
#139 = PERSON_AND_ORGANIZATION_ROLE ( 'classification_officer' ) ;
#140 = ORIENTED_EDGE ( 'NONE', *, *, #61, .F. ) ;
#141 = DATE_AND_TIME ( #185, #231 ) ;
#142 = PRODUCT_DEFINITION_SHAPE ( 'NONE', 'NONE',  #72 ) ;
#143 = CARTESIAN_POINT ( 'NONE',  ( 2.499999999999996900, 2.500000000000001300, 500.0000000000000000 ) ) ;
#144 = CARTESIAN_POINT ( 'NONE',  ( -2.500000000000000400, 2.500000000000001300, -500.0000000000000000 ) ) ;
#145 = FACE_OUTER_BOUND ( 'NONE', #179, .T. ) ;
#146 = CARTESIAN_POINT ( 'NONE',  ( 0.0000000000000000000, 0.0000000000000000000, -500.0000000000000000 ) ) ;
#147 = DIRECTION ( 'NONE',  ( 0.0000000000000000000, -0.0000000000000000000, 1.000000000000000000 ) ) ;
#148 = CARTESIAN_POINT ( 'NONE',  ( -2.500000000000002200, -2.499999999999998700, 500.0000000000000000 ) ) ;
#149 = DIRECTION ( 'NONE',  ( 0.0000000000000000000, 0.0000000000000000000, 1.000000000000000000 ) ) ;
#150 = APPROVAL_STATUS ( 'not_yet_approved' ) ;
#151 =( NAMED_UNIT ( * ) PLANE_ANGLE_UNIT ( ) SI_UNIT ( $, .RADIAN. ) );
#152 = ADVANCED_FACE ( 'NONE', ( #167 ), #232, .F. ) ;
#153 = DATE_AND_TIME ( #198, #7 ) ;
#154 = CARTESIAN_POINT ( 'NONE',  ( 2.499999999999998700, -2.499999999999998700, -500.0000000000000000 ) ) ;
#155 = VECTOR ( 'NONE', #106, 1000.000000000000000 ) ;
#156 = DIRECTION ( 'NONE',  ( -3.469446951953614200E-016, 1.000000000000000000, -0.0000000000000000000 ) ) ;
#157 = PERSON_AND_ORGANIZATION ( #138, #102 ) ;
#158 = PERSON_AND_ORGANIZATION ( #138, #102 ) ;
#159 = DATE_AND_TIME ( #206, #11 ) ;
#160 = EDGE_CURVE ( 'NONE', #217, #175, #163, .T. ) ;
#161 = VECTOR ( 'NONE', #207, 1000.000000000000000 ) ;
#162 = EDGE_LOOP ( 'NONE', ( #121, #28, #131, #10 ) ) ;
#163 = LINE ( 'NONE', #128, #120 ) ;
#164 = EDGE_LOOP ( 'NONE', ( #221, #77, #85, #73 ) ) ;
#165 = PERSON_AND_ORGANIZATION ( #138, #102 ) ;
#166 = EDGE_CURVE ( 'NONE', #224, #175, #135, .T. ) ;
#167 = FACE_OUTER_BOUND ( 'NONE', #137, .T. ) ;
#168 = CARTESIAN_POINT ( 'NONE',  ( 0.0000000000000000000, 0.0000000000000000000, 500.0000000000000000 ) ) ;
#169 = EDGE_CURVE ( 'NONE', #215, #43, #223, .T. ) ;
#170 = MECHANICAL_CONTEXT ( 'NONE', #87, 'mechanical' ) ;
#171 = PRODUCT ( 'sone3D', 'sone3D', '', ( #170 ) ) ;
#172 = LINE ( 'NONE', #218, #130 ) ;
#173 = CARTESIAN_POINT ( 'NONE',  ( -2.500000000000002200, -2.499999999999998700, -500.0000000000000000 ) ) ;
#174 = VERTEX_POINT ( 'NONE', #154 ) ;
#175 = VERTEX_POINT ( 'NONE', #5 ) ;
#176 = EDGE_CURVE ( 'NONE', #43, #224, #110, .T. ) ;
#177 = CLOSED_SHELL ( 'NONE', ( #132, #152, #126, #56, #55, #75 ) ) ;
#178 = PLANE ( 'NONE',  #213 ) ;
#179 = EDGE_LOOP ( 'NONE', ( #194, #127, #180, #22 ) ) ;
#180 = ORIENTED_EDGE ( 'NONE', *, *, #193, .F. ) ;
#181 = LOCAL_TIME ( 15, 21, 3.000000000000000000, #228 ) ;
#182 = ORIENTED_EDGE ( 'NONE', *, *, #189, .T. ) ;
#183 = DIRECTION ( 'NONE',  ( -0.0000000000000000000, -0.0000000000000000000, -1.000000000000000000 ) ) ;
#184 = DIRECTION ( 'NONE',  ( -0.0000000000000000000, 0.0000000000000000000, 1.000000000000000000 ) ) ;
#185 = CALENDAR_DATE ( 2017, 2, 11 ) ;
#186 = LINE ( 'NONE', #143, #27 ) ;
#187 = APPLICATION_CONTEXT ( 'configuration controlled 3d designs of mechanical parts and assemblies' ) ;
#188 = APPROVAL_PERSON_ORGANIZATION ( #234, #76, #101 ) ;
#189 = EDGE_CURVE ( 'NONE', #227, #224, #199, .T. ) ;
#190 = CARTESIAN_POINT ( 'NONE',  ( -2.500000000000000400, 2.500000000000001300, 500.0000000000000000 ) ) ;
#191 = FACE_OUTER_BOUND ( 'NONE', #162, .T. ) ;
#192 = SHAPE_DEFINITION_REPRESENTATION ( #142, #51 ) ;
#193 = EDGE_CURVE ( 'NONE', #215, #227, #209, .T. ) ;
#194 = ORIENTED_EDGE ( 'NONE', *, *, #176, .T. ) ;
#195 = DATE_AND_TIME ( #4, #64 ) ;
#196 = EDGE_CURVE ( 'NONE', #217, #32, #68, .T. ) ;
#197 = DIRECTION ( 'NONE',  ( -0.0000000000000000000, 0.0000000000000000000, 1.000000000000000000 ) ) ;
#198 = CALENDAR_DATE ( 2017, 2, 11 ) ;
#199 = LINE ( 'NONE', #14, #211 ) ;
#200 = PLANE ( 'NONE',  #103 ) ;
#201 = DATE_AND_TIME ( #8, #181 ) ;
#202 = APPROVAL_STATUS ( 'not_yet_approved' ) ;
#203 = APPROVAL_STATUS ( 'not_yet_approved' ) ;
#204 = PERSON_AND_ORGANIZATION ( #138, #102 ) ;
#205 = ORIENTED_EDGE ( 'NONE', *, *, #122, .F. ) ;
#206 = CALENDAR_DATE ( 2017, 2, 11 ) ;
#207 = DIRECTION ( 'NONE',  ( -1.000000000000000000, -0.0000000000000000000, -0.0000000000000000000 ) ) ;
#208 = DIRECTION ( 'NONE',  ( -3.469446951953614200E-016, -1.000000000000000000, 0.0000000000000000000 ) ) ;
#209 = LINE ( 'NONE', #190, #161 ) ;
#210 = CARTESIAN_POINT ( 'NONE',  ( 2.499999999999996900, 2.500000000000001300, 500.0000000000000000 ) ) ;
#211 = VECTOR ( 'NONE', #67, 1000.000000000000000 ) ;
#212 = EDGE_LOOP ( 'NONE', ( #57, #82, #220, #140 ) ) ;
#213 = AXIS2_PLACEMENT_3D ( 'NONE', #168, #184, #83 ) ;
#214 = VECTOR ( 'NONE', #50, 1000.000000000000000 ) ;
#215 = VERTEX_POINT ( 'NONE', #124 ) ;
#216 = CARTESIAN_POINT ( 'NONE',  ( -2.500000000000002200, -2.499999999999998700, 500.0000000000000000 ) ) ;
#217 = VERTEX_POINT ( 'NONE', #107 ) ;
#218 = CARTESIAN_POINT ( 'NONE',  ( 2.499999999999998700, -2.499999999999998700, 500.0000000000000000 ) ) ;
#219 = LINE ( 'NONE', #23, #99 ) ;
#220 = ORIENTED_EDGE ( 'NONE', *, *, #111, .F. ) ;
#221 = ORIENTED_EDGE ( 'NONE', *, *, #111, .T. ) ;
#222 = DIRECTION ( 'NONE',  ( -1.000000000000000000, -3.469446951953614200E-016, 0.0000000000000000000 ) ) ;
#223 = LINE ( 'NONE', #210, #80 ) ;
#224 = VERTEX_POINT ( 'NONE', #46 ) ;
#225 = PERSON_AND_ORGANIZATION_ROLE ( 'creator' ) ;
#226 = PERSON_AND_ORGANIZATION_ROLE ( 'creator' ) ;
#227 = VERTEX_POINT ( 'NONE', #89 ) ;
#228 = COORDINATED_UNIVERSAL_TIME_OFFSET ( 9, 0, .AHEAD. ) ;
#229 = ORIENTED_EDGE ( 'NONE', *, *, #61, .T. ) ;
#230 = CARTESIAN_POINT ( 'NONE',  ( -2.500000000000000400, 2.500000000000001300, -500.0000000000000000 ) ) ;
#231 = LOCAL_TIME ( 15, 21, 3.000000000000000000, #48 ) ;
#232 = PLANE ( 'NONE',  #58 ) ;
#233 = VECTOR ( 'NONE', #59, 1000.000000000000000 ) ;
#234 = PERSON_AND_ORGANIZATION ( #138, #102 ) ;
#235 = CARTESIAN_POINT ( 'NONE',  ( -2.500000000000000400, 2.500000000000001300, 500.0000000000000000 ) ) ;
#236 = LINE ( 'NONE', #173, #233 ) ;
#237 = SECURITY_CLASSIFICATION_LEVEL ( 'unclassified' ) ;
ENDSEC;
END-ISO-10303-21;
