ISO-10303-21;
HEADER;
FILE_DESCRIPTION (( 'STEP AP203' ),
    '1' );
FILE_NAME ('sone3D.STEP',
    '2017-11-02T04:55:17',
    ( '' ),
    ( '' ),
    'SwSTEP 2.0',
    'SolidWorks 2014',
    '' );
FILE_SCHEMA (( 'CONFIG_CONTROL_DESIGN' ));
ENDSEC;

DATA;
#1 = VECTOR ( 'NONE', #120, 1000.000000000000000 ) ;
#2 = CC_DESIGN_SECURITY_CLASSIFICATION ( #19, ( #28 ) ) ;
#3 = LOCAL_TIME ( 13, 55, 17.00000000000000000, #109 ) ;
#4 = MECHANICAL_CONTEXT ( 'NONE', #221, 'mechanical' ) ;
#5 = CC_DESIGN_APPROVAL ( #7, ( #19 ) ) ;
#6 = DIRECTION ( 'NONE',  ( -3.469446951953614200E-016, 1.000000000000000000, -0.0000000000000000000 ) ) ;
#7 = APPROVAL ( #230, 'UNSPECIFIED' ) ;
#8 = DIRECTION ( 'NONE',  ( 1.000000000000000000, 0.0000000000000000000, 0.0000000000000000000 ) ) ;
#9 = DIRECTION ( 'NONE',  ( 3.469446951953614200E-016, -1.000000000000000000, 0.0000000000000000000 ) ) ;
#10 = LINE ( 'NONE', #159, #12 ) ;
#11 = VECTOR ( 'NONE', #214, 1000.000000000000000 ) ;
#12 = VECTOR ( 'NONE', #153, 1000.000000000000000 ) ;
#13 = CC_DESIGN_DATE_AND_TIME_ASSIGNMENT ( #197, #110, ( #19 ) ) ;
#14 = LINE ( 'NONE', #16, #65 ) ;
#15 = APPROVAL_ROLE ( '' ) ;
#16 = CARTESIAN_POINT ( 'NONE',  ( -15.00000000000000200, 2.500000000000000000, 500.0000000000000000 ) ) ;
#17 = CC_DESIGN_PERSON_AND_ORGANIZATION_ASSIGNMENT ( #40, #208, ( #19 ) ) ;
#18 = DIRECTION ( 'NONE',  ( 0.0000000000000000000, -0.0000000000000000000, 1.000000000000000000 ) ) ;
#19 = SECURITY_CLASSIFICATION ( '', '', #88 ) ;
#20 = ORIENTED_EDGE ( 'NONE', *, *, #107, .T. ) ;
#21 = ORIENTED_EDGE ( 'NONE', *, *, #183, .F. ) ;
#22 = CC_DESIGN_PERSON_AND_ORGANIZATION_ASSIGNMENT ( #94, #191, ( #28 ) ) ;
#23 = CC_DESIGN_PERSON_AND_ORGANIZATION_ASSIGNMENT ( #142, #181, ( #28 ) ) ;
#24 = CC_DESIGN_APPROVAL ( #27, ( #28 ) ) ;
#25 = VERTEX_POINT ( 'NONE', #226 ) ;
#26 = LINE ( 'NONE', #155, #179 ) ;
#27 = APPROVAL ( #164, 'UNSPECIFIED' ) ;
#28 = PRODUCT_DEFINITION_FORMATION_WITH_SPECIFIED_SOURCE ( 'ANY', '', #219, .NOT_KNOWN. ) ;
#29 = CC_DESIGN_DATE_AND_TIME_ASSIGNMENT ( #72, #34, ( #61 ) ) ;
#30 = CARTESIAN_POINT ( 'NONE',  ( -15.00000000000000200, 2.500000000000000000, 500.0000000000000000 ) ) ;
#31 = ORIENTED_EDGE ( 'NONE', *, *, #89, .T. ) ;
#32 = COORDINATED_UNIVERSAL_TIME_OFFSET ( 9, 0, .AHEAD. ) ;
#33 = ADVANCED_FACE ( 'NONE', ( #69 ), #163, .F. ) ;
#34 = DATE_TIME_ROLE ( 'creation_date' ) ;
#35 = AXIS2_PLACEMENT_3D ( 'NONE', #188, #98, #18 ) ;
#36 = CALENDAR_DATE ( 2017, 2, 11 ) ;
#37 = EDGE_CURVE ( 'NONE', #215, #171, #51, .T. ) ;
#38 = VERTEX_POINT ( 'NONE', #95 ) ;
#39 = UNCERTAINTY_MEASURE_WITH_UNIT (LENGTH_MEASURE( 1.000000000000000100E-005 ), #167, 'distance_accuracy_value', 'NONE');
#40 = PERSON_AND_ORGANIZATION ( #97, #43 ) ;
#41 = VECTOR ( 'NONE', #9, 1000.000000000000000 ) ;
#42 = ORIENTED_EDGE ( 'NONE', *, *, #54, .F. ) ;
#43 = ORGANIZATION ( 'UNSPECIFIED', 'UNSPECIFIED', '' ) ;
#44 = CARTESIAN_POINT ( 'NONE',  ( -15.00000000000000200, 2.500000000000000000, -500.0000000000000000 ) ) ;
#45 = PRODUCT_DEFINITION_SHAPE ( 'NONE', 'NONE',  #61 ) ;
#46 = AXIS2_PLACEMENT_3D ( 'NONE', #189, #84, #203 ) ;
#47 = ORIENTED_EDGE ( 'NONE', *, *, #193, .F. ) ;
#48 = CARTESIAN_POINT ( 'NONE',  ( 15.00000000000000000, -2.500000000000000000, -500.0000000000000000 ) ) ;
#49 = FACE_OUTER_BOUND ( 'NONE', #137, .T. ) ;
#50 = DIRECTION ( 'NONE',  ( 1.000000000000000000, 0.0000000000000000000, 0.0000000000000000000 ) ) ;
#51 = LINE ( 'NONE', #127, #196 ) ;
#52 = ADVANCED_FACE ( 'NONE', ( #108 ), #210, .F. ) ;
#53 = APPROVAL_ROLE ( '' ) ;
#54 = EDGE_CURVE ( 'NONE', #67, #103, #58, .T. ) ;
#55 = AXIS2_PLACEMENT_3D ( 'NONE', #225, #105, #119 ) ;
#56 = LINE ( 'NONE', #144, #111 ) ;
#57 = CARTESIAN_POINT ( 'NONE',  ( 14.99999999999999800, 2.500000000000000000, -500.0000000000000000 ) ) ;
#58 = LINE ( 'NONE', #235, #11 ) ;
#59 = CC_DESIGN_PERSON_AND_ORGANIZATION_ASSIGNMENT ( #223, #213, ( #219 ) ) ;
#60 =( NAMED_UNIT ( * ) PLANE_ANGLE_UNIT ( ) SI_UNIT ( $, .RADIAN. ) );
#61 = PRODUCT_DEFINITION ( 'UNKNOWN', '', #28, #102 ) ;
#62 = VERTEX_POINT ( 'NONE', #151 ) ;
#63 = CARTESIAN_POINT ( 'NONE',  ( 0.0000000000000000000, 0.0000000000000000000, -500.0000000000000000 ) ) ;
#64 = APPROVAL ( #131, 'UNSPECIFIED' ) ;
#65 = VECTOR ( 'NONE', #132, 1000.000000000000000 ) ;
#66 = AXIS2_PLACEMENT_3D ( 'NONE', #30, #70, #162 ) ;
#67 = VERTEX_POINT ( 'NONE', #117 ) ;
#68 = EDGE_CURVE ( 'NONE', #62, #25, #14, .T. ) ;
#69 = FACE_OUTER_BOUND ( 'NONE', #187, .T. ) ;
#70 = DIRECTION ( 'NONE',  ( 1.000000000000000000, 3.469446951953614200E-016, -0.0000000000000000000 ) ) ;
#71 = CC_DESIGN_PERSON_AND_ORGANIZATION_ASSIGNMENT ( #134, #150, ( #61 ) ) ;
#72 = DATE_AND_TIME ( #169, #178 ) ;
#73 = CC_DESIGN_APPROVAL ( #64, ( #61 ) ) ;
#74 = DATE_AND_TIME ( #113, #186 ) ;
#75 = ORIENTED_EDGE ( 'NONE', *, *, #68, .T. ) ;
#76 =( GEOMETRIC_REPRESENTATION_CONTEXT ( 3 ) GLOBAL_UNCERTAINTY_ASSIGNED_CONTEXT ( ( #39 ) ) GLOBAL_UNIT_ASSIGNED_CONTEXT ( ( #167, #60, #185 ) ) REPRESENTATION_CONTEXT ( 'NONE', 'WORKASPACE' ) );
#77 = ORIENTED_EDGE ( 'NONE', *, *, #161, .F. ) ;
#78 = APPROVAL_DATE_TIME ( #129, #27 ) ;
#79 = LINE ( 'NONE', #44, #41 ) ;
#80 = ORIENTED_EDGE ( 'NONE', *, *, #183, .T. ) ;
#81 = LOCAL_TIME ( 13, 55, 17.00000000000000000, #139 ) ;
#82 = CARTESIAN_POINT ( 'NONE',  ( -15.00000000000000200, 2.500000000000000000, -500.0000000000000000 ) ) ;
#83 = AXIS2_PLACEMENT_3D ( 'NONE', #176, #112, #92 ) ;
#84 = DIRECTION ( 'NONE',  ( -1.000000000000000000, -3.469446951953614200E-016, 0.0000000000000000000 ) ) ;
#85 = ORIENTED_EDGE ( 'NONE', *, *, #231, .F. ) ;
#86 = EDGE_CURVE ( 'NONE', #38, #171, #157, .T. ) ;
#87 = APPROVAL_PERSON_ORGANIZATION ( #125, #27, #53 ) ;
#88 = SECURITY_CLASSIFICATION_LEVEL ( 'unclassified' ) ;
#89 = EDGE_CURVE ( 'NONE', #171, #103, #118, .T. ) ;
#90 = EDGE_LOOP ( 'NONE', ( #232, #173, #47, #205 ) ) ;
#91 = APPROVAL_PERSON_ORGANIZATION ( #237, #64, #15 ) ;
#92 = DIRECTION ( 'NONE',  ( 1.000000000000000000, 0.0000000000000000000, 0.0000000000000000000 ) ) ;
#93 = ORIENTED_EDGE ( 'NONE', *, *, #194, .F. ) ;
#94 = PERSON_AND_ORGANIZATION ( #97, #43 ) ;
#95 = CARTESIAN_POINT ( 'NONE',  ( 15.00000000000000000, -2.500000000000000000, 500.0000000000000000 ) ) ;
#96 = DIRECTION ( 'NONE',  ( 0.0000000000000000000, -1.000000000000000000, 0.0000000000000000000 ) ) ;
#97 = PERSON ( 'UNSPECIFIED', 'UNSPECIFIED', 'UNSPECIFIED', ('UNSPECIFIED'), ('UNSPECIFIED'), ('UNSPECIFIED') ) ;
#98 = DIRECTION ( 'NONE',  ( 0.0000000000000000000, 1.000000000000000000, 0.0000000000000000000 ) ) ;
#99 = FACE_OUTER_BOUND ( 'NONE', #90, .T. ) ;
#100 = DIRECTION ( 'NONE',  ( 3.469446951953614200E-016, -1.000000000000000000, 0.0000000000000000000 ) ) ;
#101 = AXIS2_PLACEMENT_3D ( 'NONE', #63, #206, #184 ) ;
#102 = DESIGN_CONTEXT ( 'detailed design', #115, 'design' ) ;
#103 = VERTEX_POINT ( 'NONE', #140 ) ;
#104 = SHAPE_DEFINITION_REPRESENTATION ( #45, #212 ) ;
#105 = DIRECTION ( 'NONE',  ( 0.0000000000000000000, 0.0000000000000000000, 1.000000000000000000 ) ) ;
#106 = FACE_OUTER_BOUND ( 'NONE', #211, .T. ) ;
#107 = EDGE_CURVE ( 'NONE', #38, #67, #154, .T. ) ;
#108 = FACE_OUTER_BOUND ( 'NONE', #168, .T. ) ;
#109 = COORDINATED_UNIVERSAL_TIME_OFFSET ( 9, 0, .AHEAD. ) ;
#110 = DATE_TIME_ROLE ( 'classification_date' ) ;
#111 = VECTOR ( 'NONE', #100, 1000.000000000000000 ) ;
#112 = DIRECTION ( 'NONE',  ( -0.0000000000000000000, 0.0000000000000000000, 1.000000000000000000 ) ) ;
#113 = CALENDAR_DATE ( 2017, 2, 11 ) ;
#114 = PRODUCT_RELATED_PRODUCT_CATEGORY ( 'detail', '', ( #219 ) ) ;
#115 = APPLICATION_CONTEXT ( 'configuration controlled 3d designs of mechanical parts and assemblies' ) ;
#116 = ADVANCED_FACE ( 'NONE', ( #49 ), #138, .T. ) ;
#117 = CARTESIAN_POINT ( 'NONE',  ( 14.99999999999999800, 2.500000000000000000, 500.0000000000000000 ) ) ;
#118 = LINE ( 'NONE', #57, #1 ) ;
#119 = DIRECTION ( 'NONE',  ( 1.000000000000000000, 0.0000000000000000000, 0.0000000000000000000 ) ) ;
#120 = DIRECTION ( 'NONE',  ( -3.469446951953614200E-016, 1.000000000000000000, -0.0000000000000000000 ) ) ;
#121 = DIRECTION ( 'NONE',  ( -1.000000000000000000, -0.0000000000000000000, -0.0000000000000000000 ) ) ;
#122 = VERTEX_POINT ( 'NONE', #166 ) ;
#123 = CARTESIAN_POINT ( 'NONE',  ( -15.00000000000000000, -2.500000000000000000, -500.0000000000000000 ) ) ;
#124 = AXIS2_PLACEMENT_3D ( 'NONE', #148, #96, #165 ) ;
#125 = PERSON_AND_ORGANIZATION ( #97, #43 ) ;
#126 = APPROVAL_ROLE ( '' ) ;
#127 = CARTESIAN_POINT ( 'NONE',  ( -15.00000000000000000, -2.500000000000000000, -500.0000000000000000 ) ) ;
#128 = ORIENTED_EDGE ( 'NONE', *, *, #231, .T. ) ;
#129 = DATE_AND_TIME ( #174, #220 ) ;
#130 = ADVANCED_FACE ( 'NONE', ( #106 ), #204, .F. ) ;
#131 = APPROVAL_STATUS ( 'not_yet_approved' ) ;
#132 = DIRECTION ( 'NONE',  ( -0.0000000000000000000, -0.0000000000000000000, -1.000000000000000000 ) ) ;
#133 = CLOSED_SHELL ( 'NONE', ( #33, #180, #198, #52, #116, #130 ) ) ;
#134 = PERSON_AND_ORGANIZATION ( #97, #43 ) ;
#135 = DIRECTION ( 'NONE',  ( -0.0000000000000000000, -0.0000000000000000000, -1.000000000000000000 ) ) ;
#136 = CARTESIAN_POINT ( 'NONE',  ( 15.00000000000000000, -2.500000000000000000, 500.0000000000000000 ) ) ;
#137 = EDGE_LOOP ( 'NONE', ( #222, #227, #20, #145 ) ) ;
#138 = PLANE ( 'NONE',  #83 ) ;
#139 = COORDINATED_UNIVERSAL_TIME_OFFSET ( 9, 0, .AHEAD. ) ;
#140 = CARTESIAN_POINT ( 'NONE',  ( 14.99999999999999800, 2.500000000000000000, -500.0000000000000000 ) ) ;
#141 = EDGE_LOOP ( 'NONE', ( #31, #42, #192, #177 ) ) ;
#142 = PERSON_AND_ORGANIZATION ( #97, #43 ) ;
#143 = COORDINATED_UNIVERSAL_TIME_OFFSET ( 9, 0, .AHEAD. ) ;
#144 = CARTESIAN_POINT ( 'NONE',  ( -15.00000000000000200, 2.500000000000000000, 500.0000000000000000 ) ) ;
#145 = ORIENTED_EDGE ( 'NONE', *, *, #194, .T. ) ;
#146 = DATE_AND_TIME ( #36, #81 ) ;
#147 = VECTOR ( 'NONE', #121, 1000.000000000000000 ) ;
#148 = CARTESIAN_POINT ( 'NONE',  ( -15.00000000000000200, 2.500000000000000000, 500.0000000000000000 ) ) ;
#149 = APPROVAL_PERSON_ORGANIZATION ( #158, #7, #126 ) ;
#150 = PERSON_AND_ORGANIZATION_ROLE ( 'creator' ) ;
#151 = CARTESIAN_POINT ( 'NONE',  ( -15.00000000000000200, 2.500000000000000000, 500.0000000000000000 ) ) ;
#152 = APPROVAL_DATE_TIME ( #146, #64 ) ;
#153 = DIRECTION ( 'NONE',  ( -0.0000000000000000000, -0.0000000000000000000, -1.000000000000000000 ) ) ;
#154 = LINE ( 'NONE', #216, #195 ) ;
#155 = CARTESIAN_POINT ( 'NONE',  ( -15.00000000000000200, 2.500000000000000000, 500.0000000000000000 ) ) ;
#156 = LINE ( 'NONE', #202, #190 ) ;
#157 = LINE ( 'NONE', #136, #200 ) ;
#158 = PERSON_AND_ORGANIZATION ( #97, #43 ) ;
#159 = CARTESIAN_POINT ( 'NONE',  ( -15.00000000000000000, -2.500000000000000000, 500.0000000000000000 ) ) ;
#160 = ORIENTED_EDGE ( 'NONE', *, *, #170, .F. ) ;
#161 = EDGE_CURVE ( 'NONE', #122, #215, #10, .T. ) ;
#162 = DIRECTION ( 'NONE',  ( -3.469446951953614200E-016, 1.000000000000000000, 0.0000000000000000000 ) ) ;
#163 = PLANE ( 'NONE',  #66 ) ;
#164 = APPROVAL_STATUS ( 'not_yet_approved' ) ;
#165 = DIRECTION ( 'NONE',  ( 0.0000000000000000000, -0.0000000000000000000, -1.000000000000000000 ) ) ;
#166 = CARTESIAN_POINT ( 'NONE',  ( -15.00000000000000000, -2.500000000000000000, 500.0000000000000000 ) ) ;
#167 =( LENGTH_UNIT ( ) NAMED_UNIT ( * ) SI_UNIT ( .MILLI., .METRE. ) );
#168 = EDGE_LOOP ( 'NONE', ( #80, #236, #93, #182 ) ) ;
#169 = CALENDAR_DATE ( 2017, 2, 11 ) ;
#170 = EDGE_CURVE ( 'NONE', #62, #122, #56, .T. ) ;
#171 = VERTEX_POINT ( 'NONE', #48 ) ;
#172 = DIRECTION ( 'NONE',  ( -1.000000000000000000, -0.0000000000000000000, -0.0000000000000000000 ) ) ;
#173 = ORIENTED_EDGE ( 'NONE', *, *, #86, .F. ) ;
#174 = CALENDAR_DATE ( 2017, 2, 11 ) ;
#175 = ORIENTED_EDGE ( 'NONE', *, *, #89, .F. ) ;
#176 = CARTESIAN_POINT ( 'NONE',  ( 0.0000000000000000000, 0.0000000000000000000, 500.0000000000000000 ) ) ;
#177 = ORIENTED_EDGE ( 'NONE', *, *, #86, .T. ) ;
#178 = LOCAL_TIME ( 13, 55, 17.00000000000000000, #228 ) ;
#179 = VECTOR ( 'NONE', #172, 1000.000000000000000 ) ;
#180 = ADVANCED_FACE ( 'NONE', ( #99 ), #217, .F. ) ;
#181 = PERSON_AND_ORGANIZATION_ROLE ( 'creator' ) ;
#182 = ORIENTED_EDGE ( 'NONE', *, *, #54, .T. ) ;
#183 = EDGE_CURVE ( 'NONE', #103, #25, #199, .T. ) ;
#184 = DIRECTION ( 'NONE',  ( 1.000000000000000000, 0.0000000000000000000, 0.0000000000000000000 ) ) ;
#185 =( NAMED_UNIT ( * ) SI_UNIT ( $, .STERADIAN. ) SOLID_ANGLE_UNIT ( ) );
#186 = LOCAL_TIME ( 13, 55, 17.00000000000000000, #143 ) ;
#187 = EDGE_LOOP ( 'NONE', ( #128, #77, #160, #75 ) ) ;
#188 = CARTESIAN_POINT ( 'NONE',  ( -15.00000000000000000, -2.500000000000000000, 500.0000000000000000 ) ) ;
#189 = CARTESIAN_POINT ( 'NONE',  ( 14.99999999999999800, 2.500000000000000000, 500.0000000000000000 ) ) ;
#190 = VECTOR ( 'NONE', #8, 1000.000000000000000 ) ;
#191 = PERSON_AND_ORGANIZATION_ROLE ( 'design_supplier' ) ;
#192 = ORIENTED_EDGE ( 'NONE', *, *, #107, .F. ) ;
#193 = EDGE_CURVE ( 'NONE', #122, #38, #156, .T. ) ;
#194 = EDGE_CURVE ( 'NONE', #67, #62, #26, .T. ) ;
#195 = VECTOR ( 'NONE', #6, 1000.000000000000000 ) ;
#196 = VECTOR ( 'NONE', #50, 1000.000000000000000 ) ;
#197 = DATE_AND_TIME ( #233, #3 ) ;
#198 = ADVANCED_FACE ( 'NONE', ( #229 ), #224, .F. ) ;
#199 = LINE ( 'NONE', #82, #147 ) ;
#200 = VECTOR ( 'NONE', #135, 1000.000000000000000 ) ;
#201 = APPLICATION_PROTOCOL_DEFINITION ( 'international standard', 'config_control_design', 1994, #221 ) ;
#202 = CARTESIAN_POINT ( 'NONE',  ( -15.00000000000000000, -2.500000000000000000, 500.0000000000000000 ) ) ;
#203 = DIRECTION ( 'NONE',  ( 3.469446951953614200E-016, -1.000000000000000000, 0.0000000000000000000 ) ) ;
#204 = PLANE ( 'NONE',  #101 ) ;
#205 = ORIENTED_EDGE ( 'NONE', *, *, #161, .T. ) ;
#206 = DIRECTION ( 'NONE',  ( -0.0000000000000000000, 0.0000000000000000000, 1.000000000000000000 ) ) ;
#207 = MANIFOLD_SOLID_BREP ( 'ÎÞ½ - µoµ1', #133 ) ;
#208 = PERSON_AND_ORGANIZATION_ROLE ( 'classification_officer' ) ;
#209 = APPROVAL_DATE_TIME ( #74, #7 ) ;
#210 = PLANE ( 'NONE',  #124 ) ;
#211 = EDGE_LOOP ( 'NONE', ( #85, #21, #175, #218 ) ) ;
#212 = ADVANCED_BREP_SHAPE_REPRESENTATION ( 'sone3D', ( #207, #55 ), #76 ) ;
#213 = PERSON_AND_ORGANIZATION_ROLE ( 'design_owner' ) ;
#214 = DIRECTION ( 'NONE',  ( -0.0000000000000000000, -0.0000000000000000000, -1.000000000000000000 ) ) ;
#215 = VERTEX_POINT ( 'NONE', #123 ) ;
#216 = CARTESIAN_POINT ( 'NONE',  ( 14.99999999999999800, 2.500000000000000000, 500.0000000000000000 ) ) ;
#217 = PLANE ( 'NONE',  #35 ) ;
#218 = ORIENTED_EDGE ( 'NONE', *, *, #37, .F. ) ;
#219 = PRODUCT ( 'sone3D', 'sone3D', '', ( #4 ) ) ;
#220 = LOCAL_TIME ( 13, 55, 17.00000000000000000, #32 ) ;
#221 = APPLICATION_CONTEXT ( 'configuration controlled 3d designs of mechanical parts and assemblies' ) ;
#222 = ORIENTED_EDGE ( 'NONE', *, *, #170, .T. ) ;
#223 = PERSON_AND_ORGANIZATION ( #97, #43 ) ;
#224 = PLANE ( 'NONE',  #46 ) ;
#225 = CARTESIAN_POINT ( 'NONE',  ( 0.0000000000000000000, 0.0000000000000000000, 0.0000000000000000000 ) ) ;
#226 = CARTESIAN_POINT ( 'NONE',  ( -15.00000000000000200, 2.500000000000000000, -500.0000000000000000 ) ) ;
#227 = ORIENTED_EDGE ( 'NONE', *, *, #193, .T. ) ;
#228 = COORDINATED_UNIVERSAL_TIME_OFFSET ( 9, 0, .AHEAD. ) ;
#229 = FACE_OUTER_BOUND ( 'NONE', #141, .T. ) ;
#230 = APPROVAL_STATUS ( 'not_yet_approved' ) ;
#231 = EDGE_CURVE ( 'NONE', #25, #215, #79, .T. ) ;
#232 = ORIENTED_EDGE ( 'NONE', *, *, #37, .T. ) ;
#233 = CALENDAR_DATE ( 2017, 2, 11 ) ;
#234 = APPLICATION_PROTOCOL_DEFINITION ( 'international standard', 'config_control_design', 1994, #115 ) ;
#235 = CARTESIAN_POINT ( 'NONE',  ( 14.99999999999999800, 2.500000000000000000, 500.0000000000000000 ) ) ;
#236 = ORIENTED_EDGE ( 'NONE', *, *, #68, .F. ) ;
#237 = PERSON_AND_ORGANIZATION ( #97, #43 ) ;
ENDSEC;
END-ISO-10303-21;
