ISO-10303-21;
HEADER;
FILE_DESCRIPTION (( 'STEP AP203' ),
    '1' );
FILE_NAME ('sone3D.STEP',
    '2017-11-02T04:55:01',
    ( '' ),
    ( '' ),
    'SwSTEP 2.0',
    'SolidWorks 2014',
    '' );
FILE_SCHEMA (( 'CONFIG_CONTROL_DESIGN' ));
ENDSEC;

DATA;
#1 = CARTESIAN_POINT ( 'NONE',  ( 12.50000000000000400, 2.499999999999999100, 500.0000000000000000 ) ) ;
#2 = CARTESIAN_POINT ( 'NONE',  ( -12.49999999999999800, 2.499999999999999100, 500.0000000000000000 ) ) ;
#3 = PERSON_AND_ORGANIZATION ( #23, #82 ) ;
#4 = CC_DESIGN_SECURITY_CLASSIFICATION ( #20, ( #39 ) ) ;
#5 = DIRECTION ( 'NONE',  ( 0.0000000000000000000, 1.000000000000000000, 0.0000000000000000000 ) ) ;
#6 = CC_DESIGN_APPROVAL ( #8, ( #20 ) ) ;
#7 = CARTESIAN_POINT ( 'NONE',  ( -12.49999999999999800, 2.499999999999999100, 500.0000000000000000 ) ) ;
#8 = APPROVAL ( #34, 'UNSPECIFIED' ) ;
#9 = ADVANCED_FACE ( 'NONE', ( #216 ), #223, .F. ) ;
#10 = SHAPE_DEFINITION_REPRESENTATION ( #174, #124 ) ;
#11 = PERSON_AND_ORGANIZATION_ROLE ( 'classification_officer' ) ;
#12 = VERTEX_POINT ( 'NONE', #43 ) ;
#13 = CC_DESIGN_DATE_AND_TIME_ASSIGNMENT ( #142, #148, ( #20 ) ) ;
#14 = PERSON_AND_ORGANIZATION ( #23, #82 ) ;
#15 = PLANE ( 'NONE',  #35 ) ;
#16 = MECHANICAL_CONTEXT ( 'NONE', #217, 'mechanical' ) ;
#17 = CC_DESIGN_PERSON_AND_ORGANIZATION_ASSIGNMENT ( #3, #11, ( #20 ) ) ;
#18 = CARTESIAN_POINT ( 'NONE',  ( -12.50000000000000000, -2.500000000000000900, 500.0000000000000000 ) ) ;
#19 = CARTESIAN_POINT ( 'NONE',  ( -12.49999999999999800, 2.499999999999999100, 500.0000000000000000 ) ) ;
#20 = SECURITY_CLASSIFICATION ( '', '', #127 ) ;
#21 = VERTEX_POINT ( 'NONE', #200 ) ;
#22 = DIRECTION ( 'NONE',  ( 0.0000000000000000000, -0.0000000000000000000, -1.000000000000000000 ) ) ;
#23 = PERSON ( 'UNSPECIFIED', 'UNSPECIFIED', 'UNSPECIFIED', ('UNSPECIFIED'), ('UNSPECIFIED'), ('UNSPECIFIED') ) ;
#24 = CARTESIAN_POINT ( 'NONE',  ( -12.50000000000000000, -2.500000000000000900, 500.0000000000000000 ) ) ;
#25 = LOCAL_TIME ( 13, 55, 1.000000000000000000, #117 ) ;
#26 = CC_DESIGN_PERSON_AND_ORGANIZATION_ASSIGNMENT ( #55, #228, ( #39 ) ) ;
#27 = CC_DESIGN_PERSON_AND_ORGANIZATION_ASSIGNMENT ( #157, #103, ( #39 ) ) ;
#28 = VERTEX_POINT ( 'NONE', #234 ) ;
#29 = CALENDAR_DATE ( 2017, 2, 11 ) ;
#30 = CC_DESIGN_APPROVAL ( #37, ( #39 ) ) ;
#31 = LINE ( 'NONE', #84, #214 ) ;
#32 = LINE ( 'NONE', #24, #135 ) ;
#33 = PERSON_AND_ORGANIZATION ( #23, #82 ) ;
#34 = APPROVAL_STATUS ( 'not_yet_approved' ) ;
#35 = AXIS2_PLACEMENT_3D ( 'NONE', #151, #40, #166 ) ;
#36 = CLOSED_SHELL ( 'NONE', ( #85, #160, #67, #9, #145, #226 ) ) ;
#37 = APPROVAL ( #88, 'UNSPECIFIED' ) ;
#38 = MANIFOLD_SOLID_BREP ( 'ÎÞ½ - µoµ1', #36 ) ;
#39 = PRODUCT_DEFINITION_FORMATION_WITH_SPECIFIED_SOURCE ( 'ANY', '', #203, .NOT_KNOWN. ) ;
#40 = DIRECTION ( 'NONE',  ( -0.0000000000000000000, 0.0000000000000000000, 1.000000000000000000 ) ) ;
#41 = LINE ( 'NONE', #119, #190 ) ;
#42 = FACE_OUTER_BOUND ( 'NONE', #69, .T. ) ;
#43 = CARTESIAN_POINT ( 'NONE',  ( -12.50000000000000000, -2.500000000000000900, -500.0000000000000000 ) ) ;
#44 = APPLICATION_CONTEXT ( 'configuration controlled 3d designs of mechanical parts and assemblies' ) ;
#45 = CC_DESIGN_DATE_AND_TIME_ASSIGNMENT ( #77, #196, ( #62 ) ) ;
#46 = ORIENTED_EDGE ( 'NONE', *, *, #230, .F. ) ;
#47 = VECTOR ( 'NONE', #182, 1000.000000000000000 ) ;
#48 = ORIENTED_EDGE ( 'NONE', *, *, #219, .F. ) ;
#49 = ORIENTED_EDGE ( 'NONE', *, *, #198, .T. ) ;
#50 = APPROVAL_PERSON_ORGANIZATION ( #99, #8, #161 ) ;
#51 = AXIS2_PLACEMENT_3D ( 'NONE', #189, #105, #211 ) ;
#52 = VECTOR ( 'NONE', #213, 1000.000000000000000 ) ;
#53 = ORIENTED_EDGE ( 'NONE', *, *, #158, .F. ) ;
#54 = AXIS2_PLACEMENT_3D ( 'NONE', #94, #110, #235 ) ;
#55 = PERSON_AND_ORGANIZATION ( #23, #82 ) ;
#56 =( GEOMETRIC_REPRESENTATION_CONTEXT ( 3 ) GLOBAL_UNCERTAINTY_ASSIGNED_CONTEXT ( ( #78 ) ) GLOBAL_UNIT_ASSIGNED_CONTEXT ( ( #108, #232, #134 ) ) REPRESENTATION_CONTEXT ( 'NONE', 'WORKASPACE' ) );
#57 = CARTESIAN_POINT ( 'NONE',  ( 12.50000000000000000, -2.500000000000000900, 500.0000000000000000 ) ) ;
#58 = CARTESIAN_POINT ( 'NONE',  ( -12.50000000000000000, -2.500000000000000900, 500.0000000000000000 ) ) ;
#59 = VECTOR ( 'NONE', #159, 1000.000000000000000 ) ;
#60 = APPROVAL_STATUS ( 'not_yet_approved' ) ;
#61 = CC_DESIGN_PERSON_AND_ORGANIZATION_ASSIGNMENT ( #33, #154, ( #203 ) ) ;
#62 = PRODUCT_DEFINITION ( 'UNKNOWN', '', #39, #68 ) ;
#63 = APPROVAL ( #60, 'UNSPECIFIED' ) ;
#64 = EDGE_LOOP ( 'NONE', ( #229, #72, #186, #125 ) ) ;
#65 = DATE_AND_TIME ( #131, #73 ) ;
#66 = CC_DESIGN_PERSON_AND_ORGANIZATION_ASSIGNMENT ( #164, #153, ( #62 ) ) ;
#67 = ADVANCED_FACE ( 'NONE', ( #42 ), #215, .F. ) ;
#68 = DESIGN_CONTEXT ( 'detailed design', #44, 'design' ) ;
#69 = EDGE_LOOP ( 'NONE', ( #49, #225, #93, #101 ) ) ;
#70 = EDGE_CURVE ( 'NONE', #21, #12, #32, .T. ) ;
#71 = DIRECTION ( 'NONE',  ( 1.000000000000000000, -3.469446951953614200E-016, 0.0000000000000000000 ) ) ;
#72 = ORIENTED_EDGE ( 'NONE', *, *, #177, .F. ) ;
#73 = LOCAL_TIME ( 13, 55, 1.000000000000000000, #126 ) ;
#74 = PRODUCT_RELATED_PRODUCT_CATEGORY ( 'detail', '', ( #203 ) ) ;
#75 = CALENDAR_DATE ( 2017, 2, 11 ) ;
#76 = VERTEX_POINT ( 'NONE', #220 ) ;
#77 = DATE_AND_TIME ( #171, #25 ) ;
#78 = UNCERTAINTY_MEASURE_WITH_UNIT (LENGTH_MEASURE( 1.000000000000000100E-005 ), #108, 'distance_accuracy_value', 'NONE');
#79 = CARTESIAN_POINT ( 'NONE',  ( 12.50000000000000000, -2.500000000000000900, -500.0000000000000000 ) ) ;
#80 = FACE_OUTER_BOUND ( 'NONE', #175, .T. ) ;
#81 = FACE_OUTER_BOUND ( 'NONE', #210, .T. ) ;
#82 = ORGANIZATION ( 'UNSPECIFIED', 'UNSPECIFIED', '' ) ;
#83 = AXIS2_PLACEMENT_3D ( 'NONE', #109, #115, #169 ) ;
#84 = CARTESIAN_POINT ( 'NONE',  ( 12.50000000000000400, 2.499999999999999100, 500.0000000000000000 ) ) ;
#85 = ADVANCED_FACE ( 'NONE', ( #87 ), #112, .F. ) ;
#86 = VECTOR ( 'NONE', #130, 1000.000000000000000 ) ;
#87 = FACE_OUTER_BOUND ( 'NONE', #122, .T. ) ;
#88 = APPROVAL_STATUS ( 'not_yet_approved' ) ;
#89 = CARTESIAN_POINT ( 'NONE',  ( -12.50000000000000000, -2.500000000000000900, -500.0000000000000000 ) ) ;
#90 = ORIENTED_EDGE ( 'NONE', *, *, #205, .F. ) ;
#91 = CALENDAR_DATE ( 2017, 2, 11 ) ;
#92 = DIRECTION ( 'NONE',  ( 1.000000000000000000, 0.0000000000000000000, 0.0000000000000000000 ) ) ;
#93 = ORIENTED_EDGE ( 'NONE', *, *, #128, .F. ) ;
#94 = CARTESIAN_POINT ( 'NONE',  ( 0.0000000000000000000, 0.0000000000000000000, 0.0000000000000000000 ) ) ;
#95 = DIRECTION ( 'NONE',  ( -0.0000000000000000000, -0.0000000000000000000, -1.000000000000000000 ) ) ;
#96 = LINE ( 'NONE', #121, #59 ) ;
#97 = ORIENTED_EDGE ( 'NONE', *, *, #230, .T. ) ;
#98 = AXIS2_PLACEMENT_3D ( 'NONE', #2, #138, #22 ) ;
#99 = PERSON_AND_ORGANIZATION ( #23, #82 ) ;
#100 = LINE ( 'NONE', #7, #52 ) ;
#101 = ORIENTED_EDGE ( 'NONE', *, *, #170, .T. ) ;
#102 = CC_DESIGN_APPROVAL ( #63, ( #62 ) ) ;
#103 = PERSON_AND_ORGANIZATION_ROLE ( 'creator' ) ;
#104 = APPROVAL_DATE_TIME ( #212, #37 ) ;
#105 = DIRECTION ( 'NONE',  ( -0.0000000000000000000, 0.0000000000000000000, 1.000000000000000000 ) ) ;
#106 = APPROVAL_PERSON_ORGANIZATION ( #14, #37, #208 ) ;
#107 = CARTESIAN_POINT ( 'NONE',  ( -12.49999999999999800, 2.499999999999999100, -500.0000000000000000 ) ) ;
#108 =( LENGTH_UNIT ( ) NAMED_UNIT ( * ) SI_UNIT ( .MILLI., .METRE. ) );
#109 = CARTESIAN_POINT ( 'NONE',  ( 12.50000000000000400, 2.499999999999999100, 500.0000000000000000 ) ) ;
#110 = DIRECTION ( 'NONE',  ( 0.0000000000000000000, 0.0000000000000000000, 1.000000000000000000 ) ) ;
#111 = DIRECTION ( 'NONE',  ( 3.469446951953614200E-016, 1.000000000000000000, 0.0000000000000000000 ) ) ;
#112 = PLANE ( 'NONE',  #143 ) ;
#113 = DIRECTION ( 'NONE',  ( -0.0000000000000000000, -0.0000000000000000000, -1.000000000000000000 ) ) ;
#114 = DATE_AND_TIME ( #75, #204 ) ;
#115 = DIRECTION ( 'NONE',  ( -1.000000000000000000, 6.938893903907228400E-016, 0.0000000000000000000 ) ) ;
#116 = ORIENTED_EDGE ( 'NONE', *, *, #205, .T. ) ;
#117 = COORDINATED_UNIVERSAL_TIME_OFFSET ( 9, 0, .AHEAD. ) ;
#118 = AXIS2_PLACEMENT_3D ( 'NONE', #18, #5, #172 ) ;
#119 = CARTESIAN_POINT ( 'NONE',  ( -12.49999999999999800, 2.499999999999999100, 500.0000000000000000 ) ) ;
#120 = APPROVAL_DATE_TIME ( #114, #8 ) ;
#121 = CARTESIAN_POINT ( 'NONE',  ( 12.50000000000000400, 2.499999999999999100, -500.0000000000000000 ) ) ;
#122 = EDGE_LOOP ( 'NONE', ( #129, #181, #48, #206 ) ) ;
#123 = COORDINATED_UNIVERSAL_TIME_OFFSET ( 9, 0, .AHEAD. ) ;
#124 = ADVANCED_BREP_SHAPE_REPRESENTATION ( 'sone3D', ( #38, #54 ), #56 ) ;
#125 = ORIENTED_EDGE ( 'NONE', *, *, #187, .T. ) ;
#126 = COORDINATED_UNIVERSAL_TIME_OFFSET ( 9, 0, .AHEAD. ) ;
#127 = SECURITY_CLASSIFICATION_LEVEL ( 'unclassified' ) ;
#128 = EDGE_CURVE ( 'NONE', #168, #76, #140, .T. ) ;
#129 = ORIENTED_EDGE ( 'NONE', *, *, #165, .T. ) ;
#130 = DIRECTION ( 'NONE',  ( -3.469446951953614200E-016, -1.000000000000000000, 0.0000000000000000000 ) ) ;
#131 = CALENDAR_DATE ( 2017, 2, 11 ) ;
#132 = DIRECTION ( 'NONE',  ( 1.000000000000000000, 0.0000000000000000000, 0.0000000000000000000 ) ) ;
#133 = VECTOR ( 'NONE', #231, 1000.000000000000000 ) ;
#134 =( NAMED_UNIT ( * ) SI_UNIT ( $, .STERADIAN. ) SOLID_ANGLE_UNIT ( ) );
#135 = VECTOR ( 'NONE', #95, 1000.000000000000000 ) ;
#136 = APPLICATION_PROTOCOL_DEFINITION ( 'international standard', 'config_control_design', 1994, #217 ) ;
#137 = ORIENTED_EDGE ( 'NONE', *, *, #198, .F. ) ;
#138 = DIRECTION ( 'NONE',  ( 0.0000000000000000000, -1.000000000000000000, 0.0000000000000000000 ) ) ;
#139 = VECTOR ( 'NONE', #222, 1000.000000000000000 ) ;
#140 = LINE ( 'NONE', #1, #180 ) ;
#141 = VERTEX_POINT ( 'NONE', #79 ) ;
#142 = DATE_AND_TIME ( #91, #193 ) ;
#143 = AXIS2_PLACEMENT_3D ( 'NONE', #236, #71, #111 ) ;
#144 = LINE ( 'NONE', #19, #139 ) ;
#145 = ADVANCED_FACE ( 'NONE', ( #81 ), #202, .T. ) ;
#146 = ORIENTED_EDGE ( 'NONE', *, *, #128, .T. ) ;
#147 = LINE ( 'NONE', #89, #195 ) ;
#148 = DATE_TIME_ROLE ( 'classification_date' ) ;
#149 = ORIENTED_EDGE ( 'NONE', *, *, #70, .T. ) ;
#150 = COORDINATED_UNIVERSAL_TIME_OFFSET ( 9, 0, .AHEAD. ) ;
#151 = CARTESIAN_POINT ( 'NONE',  ( 0.0000000000000000000, 0.0000000000000000000, -500.0000000000000000 ) ) ;
#152 = FACE_OUTER_BOUND ( 'NONE', #156, .T. ) ;
#153 = PERSON_AND_ORGANIZATION_ROLE ( 'creator' ) ;
#154 = PERSON_AND_ORGANIZATION_ROLE ( 'design_owner' ) ;
#155 = CARTESIAN_POINT ( 'NONE',  ( 12.50000000000000000, -2.500000000000000900, 500.0000000000000000 ) ) ;
#156 = EDGE_LOOP ( 'NONE', ( #197, #53, #137, #90 ) ) ;
#157 = PERSON_AND_ORGANIZATION ( #23, #82 ) ;
#158 = EDGE_CURVE ( 'NONE', #28, #237, #224, .T. ) ;
#159 = DIRECTION ( 'NONE',  ( 6.938893903907228400E-016, 1.000000000000000000, -0.0000000000000000000 ) ) ;
#160 = ADVANCED_FACE ( 'NONE', ( #80 ), #188, .F. ) ;
#161 = APPROVAL_ROLE ( '' ) ;
#162 = CARTESIAN_POINT ( 'NONE',  ( -12.49999999999999800, 2.499999999999999100, 500.0000000000000000 ) ) ;
#163 = ORIENTED_EDGE ( 'NONE', *, *, #170, .F. ) ;
#164 = PERSON_AND_ORGANIZATION ( #23, #82 ) ;
#165 = EDGE_CURVE ( 'NONE', #237, #12, #173, .T. ) ;
#166 = DIRECTION ( 'NONE',  ( 1.000000000000000000, 0.0000000000000000000, 0.0000000000000000000 ) ) ;
#167 = APPLICATION_PROTOCOL_DEFINITION ( 'international standard', 'config_control_design', 1994, #44 ) ;
#168 = VERTEX_POINT ( 'NONE', #155 ) ;
#169 = DIRECTION ( 'NONE',  ( -6.938893903907228400E-016, -1.000000000000000000, 0.0000000000000000000 ) ) ;
#170 = EDGE_CURVE ( 'NONE', #168, #141, #227, .T. ) ;
#171 = CALENDAR_DATE ( 2017, 2, 11 ) ;
#172 = DIRECTION ( 'NONE',  ( 0.0000000000000000000, -0.0000000000000000000, 1.000000000000000000 ) ) ;
#173 = LINE ( 'NONE', #184, #86 ) ;
#174 = PRODUCT_DEFINITION_SHAPE ( 'NONE', 'NONE',  #62 ) ;
#175 = EDGE_LOOP ( 'NONE', ( #116, #163, #46, #149 ) ) ;
#176 = APPROVAL_PERSON_ORGANIZATION ( #218, #63, #185 ) ;
#177 = EDGE_CURVE ( 'NONE', #178, #237, #41, .T. ) ;
#178 = VERTEX_POINT ( 'NONE', #162 ) ;
#179 = LOCAL_TIME ( 13, 55, 1.000000000000000000, #123 ) ;
#180 = VECTOR ( 'NONE', #201, 1000.000000000000000 ) ;
#181 = ORIENTED_EDGE ( 'NONE', *, *, #70, .F. ) ;
#182 = DIRECTION ( 'NONE',  ( -0.0000000000000000000, -0.0000000000000000000, -1.000000000000000000 ) ) ;
#183 = CARTESIAN_POINT ( 'NONE',  ( -12.49999999999999800, 2.499999999999999100, -500.0000000000000000 ) ) ;
#184 = CARTESIAN_POINT ( 'NONE',  ( -12.49999999999999800, 2.499999999999999100, -500.0000000000000000 ) ) ;
#185 = APPROVAL_ROLE ( '' ) ;
#186 = ORIENTED_EDGE ( 'NONE', *, *, #192, .F. ) ;
#187 = EDGE_CURVE ( 'NONE', #76, #28, #31, .T. ) ;
#188 = PLANE ( 'NONE',  #118 ) ;
#189 = CARTESIAN_POINT ( 'NONE',  ( 0.0000000000000000000, 0.0000000000000000000, 500.0000000000000000 ) ) ;
#190 = VECTOR ( 'NONE', #113, 1000.000000000000000 ) ;
#191 = ORIENTED_EDGE ( 'NONE', *, *, #192, .T. ) ;
#192 = EDGE_CURVE ( 'NONE', #76, #178, #144, .T. ) ;
#193 = LOCAL_TIME ( 13, 55, 1.000000000000000000, #150 ) ;
#194 = DIRECTION ( 'NONE',  ( -0.0000000000000000000, -0.0000000000000000000, -1.000000000000000000 ) ) ;
#195 = VECTOR ( 'NONE', #92, 1000.000000000000000 ) ;
#196 = DATE_TIME_ROLE ( 'creation_date' ) ;
#197 = ORIENTED_EDGE ( 'NONE', *, *, #165, .F. ) ;
#198 = EDGE_CURVE ( 'NONE', #141, #28, #96, .T. ) ;
#199 = LINE ( 'NONE', #58, #233 ) ;
#200 = CARTESIAN_POINT ( 'NONE',  ( -12.50000000000000000, -2.500000000000000900, 500.0000000000000000 ) ) ;
#201 = DIRECTION ( 'NONE',  ( 6.938893903907228400E-016, 1.000000000000000000, -0.0000000000000000000 ) ) ;
#202 = PLANE ( 'NONE',  #51 ) ;
#203 = PRODUCT ( 'sone3D', 'sone3D', '', ( #16 ) ) ;
#204 = LOCAL_TIME ( 13, 55, 1.000000000000000000, #209 ) ;
#205 = EDGE_CURVE ( 'NONE', #12, #141, #147, .T. ) ;
#206 = ORIENTED_EDGE ( 'NONE', *, *, #177, .T. ) ;
#207 = APPROVAL_DATE_TIME ( #65, #63 ) ;
#208 = APPROVAL_ROLE ( '' ) ;
#209 = COORDINATED_UNIVERSAL_TIME_OFFSET ( 9, 0, .AHEAD. ) ;
#210 = EDGE_LOOP ( 'NONE', ( #221, #97, #146, #191 ) ) ;
#211 = DIRECTION ( 'NONE',  ( 1.000000000000000000, 0.0000000000000000000, 0.0000000000000000000 ) ) ;
#212 = DATE_AND_TIME ( #29, #179 ) ;
#213 = DIRECTION ( 'NONE',  ( -3.469446951953614200E-016, -1.000000000000000000, 0.0000000000000000000 ) ) ;
#214 = VECTOR ( 'NONE', #194, 1000.000000000000000 ) ;
#215 = PLANE ( 'NONE',  #83 ) ;
#216 = FACE_OUTER_BOUND ( 'NONE', #64, .T. ) ;
#217 = APPLICATION_CONTEXT ( 'configuration controlled 3d designs of mechanical parts and assemblies' ) ;
#218 = PERSON_AND_ORGANIZATION ( #23, #82 ) ;
#219 = EDGE_CURVE ( 'NONE', #178, #21, #100, .T. ) ;
#220 = CARTESIAN_POINT ( 'NONE',  ( 12.50000000000000400, 2.499999999999999100, 500.0000000000000000 ) ) ;
#221 = ORIENTED_EDGE ( 'NONE', *, *, #219, .T. ) ;
#222 = DIRECTION ( 'NONE',  ( -1.000000000000000000, -0.0000000000000000000, -0.0000000000000000000 ) ) ;
#223 = PLANE ( 'NONE',  #98 ) ;
#224 = LINE ( 'NONE', #183, #133 ) ;
#225 = ORIENTED_EDGE ( 'NONE', *, *, #187, .F. ) ;
#226 = ADVANCED_FACE ( 'NONE', ( #152 ), #15, .F. ) ;
#227 = LINE ( 'NONE', #57, #47 ) ;
#228 = PERSON_AND_ORGANIZATION_ROLE ( 'design_supplier' ) ;
#229 = ORIENTED_EDGE ( 'NONE', *, *, #158, .T. ) ;
#230 = EDGE_CURVE ( 'NONE', #21, #168, #199, .T. ) ;
#231 = DIRECTION ( 'NONE',  ( -1.000000000000000000, -0.0000000000000000000, -0.0000000000000000000 ) ) ;
#232 =( NAMED_UNIT ( * ) PLANE_ANGLE_UNIT ( ) SI_UNIT ( $, .RADIAN. ) );
#233 = VECTOR ( 'NONE', #132, 1000.000000000000000 ) ;
#234 = CARTESIAN_POINT ( 'NONE',  ( 12.50000000000000400, 2.499999999999999100, -500.0000000000000000 ) ) ;
#235 = DIRECTION ( 'NONE',  ( 1.000000000000000000, 0.0000000000000000000, 0.0000000000000000000 ) ) ;
#236 = CARTESIAN_POINT ( 'NONE',  ( -12.49999999999999800, 2.499999999999999100, 500.0000000000000000 ) ) ;
#237 = VERTEX_POINT ( 'NONE', #107 ) ;
ENDSEC;
END-ISO-10303-21;
