ISO-10303-21;
HEADER;
FILE_DESCRIPTION (( 'STEP AP203' ),
    '1' );
FILE_NAME ('sone3D.STEP',
    '2017-11-02T04:54:44',
    ( '' ),
    ( '' ),
    'SwSTEP 2.0',
    'SolidWorks 2014',
    '' );
FILE_SCHEMA (( 'CONFIG_CONTROL_DESIGN' ));
ENDSEC;

DATA;
#1 = PERSON_AND_ORGANIZATION_ROLE ( 'creator' ) ;
#2 = EDGE_CURVE ( 'NONE', #176, #139, #226, .T. ) ;
#3 = CARTESIAN_POINT ( 'NONE',  ( -10.00000000000000000, -2.500000000000001300, 500.0000000000000000 ) ) ;
#4 = DIRECTION ( 'NONE',  ( -1.000000000000000000, -0.0000000000000000000, -0.0000000000000000000 ) ) ;
#5 = PERSON_AND_ORGANIZATION ( #120, #97 ) ;
#6 = LINE ( 'NONE', #3, #193 ) ;
#7 = APPROVAL ( #112, 'UNSPECIFIED' ) ;
#8 = DIRECTION ( 'NONE',  ( 1.000000000000000000, 0.0000000000000000000, 0.0000000000000000000 ) ) ;
#9 = PLANE ( 'NONE',  #73 ) ;
#10 = CC_DESIGN_DATE_AND_TIME_ASSIGNMENT ( #12, #212, ( #18 ) ) ;
#11 = LINE ( 'NONE', #235, #51 ) ;
#12 = DATE_AND_TIME ( #198, #159 ) ;
#13 = APPLICATION_CONTEXT ( 'configuration controlled 3d designs of mechanical parts and assemblies' ) ;
#14 = PERSON_AND_ORGANIZATION ( #120, #97 ) ;
#15 = PLANE ( 'NONE',  #146 ) ;
#16 = CC_DESIGN_PERSON_AND_ORGANIZATION_ASSIGNMENT ( #60, #93, ( #18 ) ) ;
#17 = PLANE ( 'NONE',  #65 ) ;
#18 = SECURITY_CLASSIFICATION ( '', '', #64 ) ;
#19 = DIRECTION ( 'NONE',  ( 1.000000000000000000, 0.0000000000000000000, 0.0000000000000000000 ) ) ;
#20 = DIRECTION ( 'NONE',  ( -3.469446951953614200E-016, -1.000000000000000000, 0.0000000000000000000 ) ) ;
#21 = APPROVAL_STATUS ( 'not_yet_approved' ) ;
#22 = CC_DESIGN_PERSON_AND_ORGANIZATION_ASSIGNMENT ( #5, #166, ( #49 ) ) ;
#23 = ORIENTED_EDGE ( 'NONE', *, *, #190, .F. ) ;
#24 = EDGE_CURVE ( 'NONE', #139, #143, #94, .T. ) ;
#25 = DIRECTION ( 'NONE',  ( -0.0000000000000000000, -0.0000000000000000000, -1.000000000000000000 ) ) ;
#26 = PRODUCT_RELATED_PRODUCT_CATEGORY ( 'detail', '', ( #183 ) ) ;
#27 = ADVANCED_FACE ( 'NONE', ( #175 ), #220, .F. ) ;
#28 = VERTEX_POINT ( 'NONE', #67 ) ;
#29 = CC_DESIGN_PERSON_AND_ORGANIZATION_ASSIGNMENT ( #191, #40, ( #49 ) ) ;
#30 = VECTOR ( 'NONE', #4, 1000.000000000000000 ) ;
#31 = COORDINATED_UNIVERSAL_TIME_OFFSET ( 9, 0, .AHEAD. ) ;
#32 = ORIENTED_EDGE ( 'NONE', *, *, #164, .F. ) ;
#33 = CC_DESIGN_APPROVAL ( #34, ( #49 ) ) ;
#34 = APPROVAL ( #21, 'UNSPECIFIED' ) ;
#35 = ORIENTED_EDGE ( 'NONE', *, *, #205, .F. ) ;
#36 = APPROVAL_PERSON_ORGANIZATION ( #90, #34, #156 ) ;
#37 = DIRECTION ( 'NONE',  ( 1.000000000000000000, -3.469446951953614200E-016, 0.0000000000000000000 ) ) ;
#38 = CC_DESIGN_SECURITY_CLASSIFICATION ( #18, ( #49 ) ) ;
#39 = ORIENTED_EDGE ( 'NONE', *, *, #172, .F. ) ;
#40 = PERSON_AND_ORGANIZATION_ROLE ( 'creator' ) ;
#41 = AXIS2_PLACEMENT_3D ( 'NONE', #115, #185, #45 ) ;
#42 = ORIENTED_EDGE ( 'NONE', *, *, #2, .T. ) ;
#43 = DIRECTION ( 'NONE',  ( -1.000000000000000000, -0.0000000000000000000, -0.0000000000000000000 ) ) ;
#44 = CALENDAR_DATE ( 2017, 2, 11 ) ;
#45 = DIRECTION ( 'NONE',  ( 1.000000000000000000, 0.0000000000000000000, 0.0000000000000000000 ) ) ;
#46 = LINE ( 'NONE', #138, #151 ) ;
#47 = ADVANCED_FACE ( 'NONE', ( #59 ), #17, .F. ) ;
#48 = ORIENTED_EDGE ( 'NONE', *, *, #218, .F. ) ;
#49 = PRODUCT_DEFINITION_FORMATION_WITH_SPECIFIED_SOURCE ( 'ANY', '', #183, .NOT_KNOWN. ) ;
#50 = CC_DESIGN_DATE_AND_TIME_ASSIGNMENT ( #228, #136, ( #125 ) ) ;
#51 = VECTOR ( 'NONE', #20, 1000.000000000000000 ) ;
#52 = UNCERTAINTY_MEASURE_WITH_UNIT (LENGTH_MEASURE( 1.000000000000000100E-005 ), #121, 'distance_accuracy_value', 'NONE');
#53 = CALENDAR_DATE ( 2017, 2, 11 ) ;
#54 =( NAMED_UNIT ( * ) SI_UNIT ( $, .STERADIAN. ) SOLID_ANGLE_UNIT ( ) );
#55 = CC_DESIGN_PERSON_AND_ORGANIZATION_ASSIGNMENT ( #79, #1, ( #125 ) ) ;
#56 = ORIENTED_EDGE ( 'NONE', *, *, #196, .T. ) ;
#57 = CC_DESIGN_APPROVAL ( #7, ( #18 ) ) ;
#58 = CARTESIAN_POINT ( 'NONE',  ( 0.0000000000000000000, 0.0000000000000000000, 500.0000000000000000 ) ) ;
#59 = FACE_OUTER_BOUND ( 'NONE', #223, .T. ) ;
#60 = PERSON_AND_ORGANIZATION ( #120, #97 ) ;
#61 = CARTESIAN_POINT ( 'NONE',  ( 9.999999999999998200, 2.499999999999998700, 500.0000000000000000 ) ) ;
#62 = CARTESIAN_POINT ( 'NONE',  ( -9.999999999999998200, 2.499999999999998700, 500.0000000000000000 ) ) ;
#63 = CARTESIAN_POINT ( 'NONE',  ( -10.00000000000000000, -2.500000000000001300, 500.0000000000000000 ) ) ;
#64 = SECURITY_CLASSIFICATION_LEVEL ( 'unclassified' ) ;
#65 = AXIS2_PLACEMENT_3D ( 'NONE', #62, #37, #78 ) ;
#66 = FACE_OUTER_BOUND ( 'NONE', #225, .T. ) ;
#67 = CARTESIAN_POINT ( 'NONE',  ( 10.00000000000000000, -2.500000000000001300, 500.0000000000000000 ) ) ;
#68 = CC_DESIGN_APPROVAL ( #116, ( #125 ) ) ;
#69 = VECTOR ( 'NONE', #210, 1000.000000000000000 ) ;
#70 = CARTESIAN_POINT ( 'NONE',  ( 0.0000000000000000000, 0.0000000000000000000, 0.0000000000000000000 ) ) ;
#71 = PERSON_AND_ORGANIZATION ( #120, #97 ) ;
#72 = CARTESIAN_POINT ( 'NONE',  ( 9.999999999999998200, 2.499999999999998700, -500.0000000000000000 ) ) ;
#73 = AXIS2_PLACEMENT_3D ( 'NONE', #111, #211, #145 ) ;
#74 = EDGE_LOOP ( 'NONE', ( #56, #35, #23, #237 ) ) ;
#75 =( GEOMETRIC_REPRESENTATION_CONTEXT ( 3 ) GLOBAL_UNCERTAINTY_ASSIGNED_CONTEXT ( ( #52 ) ) GLOBAL_UNIT_ASSIGNED_CONTEXT ( ( #121, #141, #54 ) ) REPRESENTATION_CONTEXT ( 'NONE', 'WORKASPACE' ) );
#76 = APPLICATION_PROTOCOL_DEFINITION ( 'international standard', 'config_control_design', 1994, #88 ) ;
#77 = VERTEX_POINT ( 'NONE', #129 ) ;
#78 = DIRECTION ( 'NONE',  ( 3.469446951953614200E-016, 1.000000000000000000, 0.0000000000000000000 ) ) ;
#79 = PERSON_AND_ORGANIZATION ( #120, #97 ) ;
#80 = CARTESIAN_POINT ( 'NONE',  ( -10.00000000000000000, -2.500000000000001300, 500.0000000000000000 ) ) ;
#81 = CARTESIAN_POINT ( 'NONE',  ( -9.999999999999998200, 2.499999999999998700, 500.0000000000000000 ) ) ;
#82 = CALENDAR_DATE ( 2017, 2, 11 ) ;
#83 = DIRECTION ( 'NONE',  ( -0.0000000000000000000, -0.0000000000000000000, -1.000000000000000000 ) ) ;
#84 = ORIENTED_EDGE ( 'NONE', *, *, #24, .T. ) ;
#85 = LOCAL_TIME ( 13, 54, 44.00000000000000000, #140 ) ;
#86 = ORIENTED_EDGE ( 'NONE', *, *, #24, .F. ) ;
#87 = PERSON_AND_ORGANIZATION ( #120, #97 ) ;
#88 = APPLICATION_CONTEXT ( 'configuration controlled 3d designs of mechanical parts and assemblies' ) ;
#89 = VERTEX_POINT ( 'NONE', #163 ) ;
#90 = PERSON_AND_ORGANIZATION ( #120, #97 ) ;
#91 = DIRECTION ( 'NONE',  ( -0.0000000000000000000, -0.0000000000000000000, -1.000000000000000000 ) ) ;
#92 = ORIENTED_EDGE ( 'NONE', *, *, #205, .T. ) ;
#93 = PERSON_AND_ORGANIZATION_ROLE ( 'classification_officer' ) ;
#94 = LINE ( 'NONE', #137, #30 ) ;
#95 = LINE ( 'NONE', #165, #186 ) ;
#96 = ORIENTED_EDGE ( 'NONE', *, *, #190, .T. ) ;
#97 = ORGANIZATION ( 'UNSPECIFIED', 'UNSPECIFIED', '' ) ;
#98 = APPLICATION_PROTOCOL_DEFINITION ( 'international standard', 'config_control_design', 1994, #13 ) ;
#99 = DATE_AND_TIME ( #53, #234 ) ;
#100 = DIRECTION ( 'NONE',  ( 0.0000000000000000000, -0.0000000000000000000, -1.000000000000000000 ) ) ;
#101 = CARTESIAN_POINT ( 'NONE',  ( -10.00000000000000000, -2.500000000000001300, -500.0000000000000000 ) ) ;
#102 = LINE ( 'NONE', #206, #69 ) ;
#103 = ORIENTED_EDGE ( 'NONE', *, *, #172, .T. ) ;
#104 = AXIS2_PLACEMENT_3D ( 'NONE', #70, #209, #108 ) ;
#105 = ADVANCED_FACE ( 'NONE', ( #106 ), #15, .T. ) ;
#106 = FACE_OUTER_BOUND ( 'NONE', #118, .T. ) ;
#107 = COORDINATED_UNIVERSAL_TIME_OFFSET ( 9, 0, .AHEAD. ) ;
#108 = DIRECTION ( 'NONE',  ( 1.000000000000000000, 0.0000000000000000000, 0.0000000000000000000 ) ) ;
#109 = VECTOR ( 'NONE', #83, 1000.000000000000000 ) ;
#110 = FACE_OUTER_BOUND ( 'NONE', #177, .T. ) ;
#111 = CARTESIAN_POINT ( 'NONE',  ( 9.999999999999998200, 2.499999999999998700, 500.0000000000000000 ) ) ;
#112 = APPROVAL_STATUS ( 'not_yet_approved' ) ;
#113 = LINE ( 'NONE', #222, #109 ) ;
#114 = CC_DESIGN_PERSON_AND_ORGANIZATION_ASSIGNMENT ( #71, #126, ( #183 ) ) ;
#115 = CARTESIAN_POINT ( 'NONE',  ( 0.0000000000000000000, 0.0000000000000000000, -500.0000000000000000 ) ) ;
#116 = APPROVAL ( #217, 'UNSPECIFIED' ) ;
#117 = APPROVAL_ROLE ( '' ) ;
#118 = EDGE_LOOP ( 'NONE', ( #103, #96, #124, #167 ) ) ;
#119 = EDGE_CURVE ( 'NONE', #28, #89, #201, .T. ) ;
#120 = PERSON ( 'UNSPECIFIED', 'UNSPECIFIED', 'UNSPECIFIED', ('UNSPECIFIED'), ('UNSPECIFIED'), ('UNSPECIFIED') ) ;
#121 =( LENGTH_UNIT ( ) NAMED_UNIT ( * ) SI_UNIT ( .MILLI., .METRE. ) );
#122 = CARTESIAN_POINT ( 'NONE',  ( -9.999999999999998200, 2.499999999999998700, -500.0000000000000000 ) ) ;
#123 = ADVANCED_FACE ( 'NONE', ( #66 ), #200, .F. ) ;
#124 = ORIENTED_EDGE ( 'NONE', *, *, #119, .T. ) ;
#125 = PRODUCT_DEFINITION ( 'UNKNOWN', '', #49, #207 ) ;
#126 = PERSON_AND_ORGANIZATION_ROLE ( 'design_owner' ) ;
#127 = DATE_AND_TIME ( #171, #85 ) ;
#128 = VERTEX_POINT ( 'NONE', #63 ) ;
#129 = CARTESIAN_POINT ( 'NONE',  ( -9.999999999999998200, 2.499999999999998700, 500.0000000000000000 ) ) ;
#130 = LOCAL_TIME ( 13, 54, 44.00000000000000000, #174 ) ;
#131 = DIRECTION ( 'NONE',  ( -3.469446951953614200E-016, -1.000000000000000000, 0.0000000000000000000 ) ) ;
#132 = ORIENTED_EDGE ( 'NONE', *, *, #164, .T. ) ;
#133 = PRODUCT_DEFINITION_SHAPE ( 'NONE', 'NONE',  #125 ) ;
#134 = DIRECTION ( 'NONE',  ( 0.0000000000000000000, -0.0000000000000000000, 1.000000000000000000 ) ) ;
#135 = ORIENTED_EDGE ( 'NONE', *, *, #119, .F. ) ;
#136 = DATE_TIME_ROLE ( 'creation_date' ) ;
#137 = CARTESIAN_POINT ( 'NONE',  ( -9.999999999999998200, 2.499999999999998700, -500.0000000000000000 ) ) ;
#138 = CARTESIAN_POINT ( 'NONE',  ( 10.00000000000000000, -2.500000000000001300, 500.0000000000000000 ) ) ;
#139 = VERTEX_POINT ( 'NONE', #72 ) ;
#140 = COORDINATED_UNIVERSAL_TIME_OFFSET ( 9, 0, .AHEAD. ) ;
#141 =( NAMED_UNIT ( * ) PLANE_ANGLE_UNIT ( ) SI_UNIT ( $, .RADIAN. ) );
#142 = CARTESIAN_POINT ( 'NONE',  ( -9.999999999999998200, 2.499999999999998700, -500.0000000000000000 ) ) ;
#143 = VERTEX_POINT ( 'NONE', #142 ) ;
#144 = LINE ( 'NONE', #122, #232 ) ;
#145 = DIRECTION ( 'NONE',  ( 3.469446951953614200E-016, -1.000000000000000000, 0.0000000000000000000 ) ) ;
#146 = AXIS2_PLACEMENT_3D ( 'NONE', #58, #219, #19 ) ;
#147 = LOCAL_TIME ( 13, 54, 44.00000000000000000, #31 ) ;
#148 = LINE ( 'NONE', #169, #199 ) ;
#149 = EDGE_LOOP ( 'NONE', ( #84, #180, #160, #132 ) ) ;
#150 = APPROVAL_DATE_TIME ( #99, #34 ) ;
#151 = VECTOR ( 'NONE', #25, 1000.000000000000000 ) ;
#152 = DIRECTION ( 'NONE',  ( -3.469446951953614200E-016, 1.000000000000000000, -0.0000000000000000000 ) ) ;
#153 = SHAPE_DEFINITION_REPRESENTATION ( #133, #158 ) ;
#154 = AXIS2_PLACEMENT_3D ( 'NONE', #81, #203, #100 ) ;
#155 = CARTESIAN_POINT ( 'NONE',  ( 10.00000000000000000, -2.500000000000001300, -500.0000000000000000 ) ) ;
#156 = APPROVAL_ROLE ( '' ) ;
#157 = VECTOR ( 'NONE', #152, 1000.000000000000000 ) ;
#158 = ADVANCED_BREP_SHAPE_REPRESENTATION ( 'sone3D', ( #231, #104 ), #75 ) ;
#159 = LOCAL_TIME ( 13, 54, 44.00000000000000000, #107 ) ;
#160 = ORIENTED_EDGE ( 'NONE', *, *, #208, .F. ) ;
#161 = DIRECTION ( 'NONE',  ( -3.469446951953614200E-016, 1.000000000000000000, -0.0000000000000000000 ) ) ;
#162 = EDGE_CURVE ( 'NONE', #143, #233, #144, .T. ) ;
#163 = CARTESIAN_POINT ( 'NONE',  ( 9.999999999999998200, 2.499999999999998700, 500.0000000000000000 ) ) ;
#164 = EDGE_CURVE ( 'NONE', #89, #139, #189, .T. ) ;
#165 = CARTESIAN_POINT ( 'NONE',  ( -9.999999999999998200, 2.499999999999998700, 500.0000000000000000 ) ) ;
#166 = PERSON_AND_ORGANIZATION_ROLE ( 'design_supplier' ) ;
#167 = ORIENTED_EDGE ( 'NONE', *, *, #208, .T. ) ;
#168 = DATE_AND_TIME ( #82, #130 ) ;
#169 = CARTESIAN_POINT ( 'NONE',  ( -10.00000000000000000, -2.500000000000001300, 500.0000000000000000 ) ) ;
#170 = ORIENTED_EDGE ( 'NONE', *, *, #2, .F. ) ;
#171 = CALENDAR_DATE ( 2017, 2, 11 ) ;
#172 = EDGE_CURVE ( 'NONE', #77, #128, #11, .T. ) ;
#173 = ORIENTED_EDGE ( 'NONE', *, *, #230, .T. ) ;
#174 = COORDINATED_UNIVERSAL_TIME_OFFSET ( 9, 0, .AHEAD. ) ;
#175 = FACE_OUTER_BOUND ( 'NONE', #74, .T. ) ;
#176 = VERTEX_POINT ( 'NONE', #155 ) ;
#177 = EDGE_LOOP ( 'NONE', ( #42, #32, #135, #92 ) ) ;
#178 = COORDINATED_UNIVERSAL_TIME_OFFSET ( 9, 0, .AHEAD. ) ;
#179 = DIRECTION ( 'NONE',  ( 0.0000000000000000000, 1.000000000000000000, 0.0000000000000000000 ) ) ;
#180 = ORIENTED_EDGE ( 'NONE', *, *, #230, .F. ) ;
#181 = CARTESIAN_POINT ( 'NONE',  ( 9.999999999999998200, 2.499999999999998700, 500.0000000000000000 ) ) ;
#182 = VECTOR ( 'NONE', #91, 1000.000000000000000 ) ;
#183 = PRODUCT ( 'sone3D', 'sone3D', '', ( #227 ) ) ;
#184 = DIRECTION ( 'NONE',  ( -0.0000000000000000000, -0.0000000000000000000, -1.000000000000000000 ) ) ;
#185 = DIRECTION ( 'NONE',  ( -0.0000000000000000000, 0.0000000000000000000, 1.000000000000000000 ) ) ;
#186 = VECTOR ( 'NONE', #43, 1000.000000000000000 ) ;
#187 = ORIENTED_EDGE ( 'NONE', *, *, #162, .F. ) ;
#188 = ADVANCED_FACE ( 'NONE', ( #110 ), #9, .F. ) ;
#189 = LINE ( 'NONE', #61, #182 ) ;
#190 = EDGE_CURVE ( 'NONE', #128, #28, #6, .T. ) ;
#191 = PERSON_AND_ORGANIZATION ( #120, #97 ) ;
#192 = PLANE ( 'NONE',  #154 ) ;
#193 = VECTOR ( 'NONE', #8, 1000.000000000000000 ) ;
#194 = CARTESIAN_POINT ( 'NONE',  ( 9.999999999999998200, 2.499999999999998700, -500.0000000000000000 ) ) ;
#195 = ORIENTED_EDGE ( 'NONE', *, *, #162, .T. ) ;
#196 = EDGE_CURVE ( 'NONE', #233, #176, #102, .T. ) ;
#197 = FACE_OUTER_BOUND ( 'NONE', #149, .T. ) ;
#198 = CALENDAR_DATE ( 2017, 2, 11 ) ;
#199 = VECTOR ( 'NONE', #184, 1000.000000000000000 ) ;
#200 = PLANE ( 'NONE',  #41 ) ;
#201 = LINE ( 'NONE', #181, #157 ) ;
#202 = CLOSED_SHELL ( 'NONE', ( #47, #27, #188, #204, #105, #123 ) ) ;
#203 = DIRECTION ( 'NONE',  ( 0.0000000000000000000, -1.000000000000000000, 0.0000000000000000000 ) ) ;
#204 = ADVANCED_FACE ( 'NONE', ( #197 ), #192, .F. ) ;
#205 = EDGE_CURVE ( 'NONE', #28, #176, #46, .T. ) ;
#206 = CARTESIAN_POINT ( 'NONE',  ( -10.00000000000000000, -2.500000000000001300, -500.0000000000000000 ) ) ;
#207 = DESIGN_CONTEXT ( 'detailed design', #13, 'design' ) ;
#208 = EDGE_CURVE ( 'NONE', #89, #77, #95, .T. ) ;
#209 = DIRECTION ( 'NONE',  ( 0.0000000000000000000, 0.0000000000000000000, 1.000000000000000000 ) ) ;
#210 = DIRECTION ( 'NONE',  ( 1.000000000000000000, 0.0000000000000000000, 0.0000000000000000000 ) ) ;
#211 = DIRECTION ( 'NONE',  ( -1.000000000000000000, -3.469446951953614200E-016, 0.0000000000000000000 ) ) ;
#212 = DATE_TIME_ROLE ( 'classification_date' ) ;
#213 = APPROVAL_DATE_TIME ( #168, #7 ) ;
#214 = VECTOR ( 'NONE', #161, 1000.000000000000000 ) ;
#215 = APPROVAL_DATE_TIME ( #127, #116 ) ;
#216 = AXIS2_PLACEMENT_3D ( 'NONE', #80, #179, #134 ) ;
#217 = APPROVAL_STATUS ( 'not_yet_approved' ) ;
#218 = EDGE_CURVE ( 'NONE', #128, #233, #148, .T. ) ;
#219 = DIRECTION ( 'NONE',  ( -0.0000000000000000000, 0.0000000000000000000, 1.000000000000000000 ) ) ;
#220 = PLANE ( 'NONE',  #216 ) ;
#221 = APPROVAL_PERSON_ORGANIZATION ( #87, #7, #236 ) ;
#222 = CARTESIAN_POINT ( 'NONE',  ( -9.999999999999998200, 2.499999999999998700, 500.0000000000000000 ) ) ;
#223 = EDGE_LOOP ( 'NONE', ( #195, #48, #39, #173 ) ) ;
#224 = APPROVAL_PERSON_ORGANIZATION ( #14, #116, #117 ) ;
#225 = EDGE_LOOP ( 'NONE', ( #187, #86, #170, #229 ) ) ;
#226 = LINE ( 'NONE', #194, #214 ) ;
#227 = MECHANICAL_CONTEXT ( 'NONE', #88, 'mechanical' ) ;
#228 = DATE_AND_TIME ( #44, #147 ) ;
#229 = ORIENTED_EDGE ( 'NONE', *, *, #196, .F. ) ;
#230 = EDGE_CURVE ( 'NONE', #77, #143, #113, .T. ) ;
#231 = MANIFOLD_SOLID_BREP ( 'ÎÞ½ - µoµ1', #202 ) ;
#232 = VECTOR ( 'NONE', #131, 1000.000000000000000 ) ;
#233 = VERTEX_POINT ( 'NONE', #101 ) ;
#234 = LOCAL_TIME ( 13, 54, 44.00000000000000000, #178 ) ;
#235 = CARTESIAN_POINT ( 'NONE',  ( -9.999999999999998200, 2.499999999999998700, 500.0000000000000000 ) ) ;
#236 = APPROVAL_ROLE ( '' ) ;
#237 = ORIENTED_EDGE ( 'NONE', *, *, #218, .T. ) ;
ENDSEC;
END-ISO-10303-21;
