ISO-10303-21;
HEADER;
FILE_DESCRIPTION (( 'STEP AP203' ),
    '1' );
FILE_NAME ('sone3D.STEP',
    '2017-11-02T04:54:29',
    ( '' ),
    ( '' ),
    'SwSTEP 2.0',
    'SolidWorks 2014',
    '' );
FILE_SCHEMA (( 'CONFIG_CONTROL_DESIGN' ));
ENDSEC;

DATA;
#1 = DIRECTION ( 'NONE',  ( 1.734723475976807100E-016, -1.000000000000000000, 0.0000000000000000000 ) ) ;
#2 = PLANE ( 'NONE',  #13 ) ;
#3 = ADVANCED_FACE ( 'NONE', ( #119 ), #208, .F. ) ;
#4 = DIRECTION ( 'NONE',  ( 1.000000000000000000, 0.0000000000000000000, 0.0000000000000000000 ) ) ;
#5 = APPROVAL ( #88, 'UNSPECIFIED' ) ;
#6 = DIRECTION ( 'NONE',  ( 0.0000000000000000000, -0.0000000000000000000, -1.000000000000000000 ) ) ;
#7 = DIRECTION ( 'NONE',  ( 0.0000000000000000000, 1.000000000000000000, 0.0000000000000000000 ) ) ;
#8 = VECTOR ( 'NONE', #78, 1000.000000000000000 ) ;
#9 = CALENDAR_DATE ( 2017, 2, 11 ) ;
#10 =( GEOMETRIC_REPRESENTATION_CONTEXT ( 3 ) GLOBAL_UNCERTAINTY_ASSIGNED_CONTEXT ( ( #201 ) ) GLOBAL_UNIT_ASSIGNED_CONTEXT ( ( #85, #212, #99 ) ) REPRESENTATION_CONTEXT ( 'NONE', 'WORKASPACE' ) );
#11 = DIRECTION ( 'NONE',  ( -1.000000000000000000, -0.0000000000000000000, -0.0000000000000000000 ) ) ;
#12 = VECTOR ( 'NONE', #216, 1000.000000000000000 ) ;
#13 = AXIS2_PLACEMENT_3D ( 'NONE', #130, #17, #148 ) ;
#14 = PRODUCT_DEFINITION ( 'UNKNOWN', '', #197, #96 ) ;
#15 = ADVANCED_FACE ( 'NONE', ( #89 ), #182, .F. ) ;
#16 = PERSON_AND_ORGANIZATION ( #110, #131 ) ;
#17 = DIRECTION ( 'NONE',  ( 1.000000000000000000, 1.734723475976807100E-016, -0.0000000000000000000 ) ) ;
#18 = CARTESIAN_POINT ( 'NONE',  ( 7.499999999999999100, 2.499999999999999100, 500.0000000000000000 ) ) ;
#19 = ORIENTED_EDGE ( 'NONE', *, *, #80, .T. ) ;
#20 = EDGE_LOOP ( 'NONE', ( #233, #72, #223, #90 ) ) ;
#21 = LINE ( 'NONE', #236, #209 ) ;
#22 = ORIENTED_EDGE ( 'NONE', *, *, #118, .F. ) ;
#23 = COORDINATED_UNIVERSAL_TIME_OFFSET ( 9, 0, .AHEAD. ) ;
#24 = CARTESIAN_POINT ( 'NONE',  ( -7.500000000000000900, 2.499999999999999100, -500.0000000000000000 ) ) ;
#25 = AXIS2_PLACEMENT_3D ( 'NONE', #229, #115, #6 ) ;
#26 = DATE_AND_TIME ( #69, #123 ) ;
#27 = LINE ( 'NONE', #100, #215 ) ;
#28 = ORIENTED_EDGE ( 'NONE', *, *, #114, .F. ) ;
#29 = ORIENTED_EDGE ( 'NONE', *, *, #165, .F. ) ;
#30 = SHAPE_DEFINITION_REPRESENTATION ( #152, #93 ) ;
#31 = LOCAL_TIME ( 13, 54, 29.00000000000000000, #75 ) ;
#32 = CC_DESIGN_PERSON_AND_ORGANIZATION_ASSIGNMENT ( #77, #183, ( #133 ) ) ;
#33 = PERSON_AND_ORGANIZATION ( #110, #131 ) ;
#34 = DIRECTION ( 'NONE',  ( 0.0000000000000000000, 0.0000000000000000000, 1.000000000000000000 ) ) ;
#35 = AXIS2_PLACEMENT_3D ( 'NONE', #224, #109, #4 ) ;
#36 = DIRECTION ( 'NONE',  ( 1.000000000000000000, 0.0000000000000000000, 0.0000000000000000000 ) ) ;
#37 = ORIENTED_EDGE ( 'NONE', *, *, #165, .T. ) ;
#38 = VECTOR ( 'NONE', #129, 1000.000000000000000 ) ;
#39 = CARTESIAN_POINT ( 'NONE',  ( 7.499999999999999100, 2.499999999999999100, -500.0000000000000000 ) ) ;
#40 = COORDINATED_UNIVERSAL_TIME_OFFSET ( 9, 0, .AHEAD. ) ;
#41 = PERSON_AND_ORGANIZATION_ROLE ( 'creator' ) ;
#42 = ORIENTED_EDGE ( 'NONE', *, *, #150, .T. ) ;
#43 = AXIS2_PLACEMENT_3D ( 'NONE', #143, #46, #176 ) ;
#44 = AXIS2_PLACEMENT_3D ( 'NONE', #198, #34, #158 ) ;
#45 = CARTESIAN_POINT ( 'NONE',  ( -7.500000000000000000, -2.500000000000000900, -500.0000000000000000 ) ) ;
#46 = DIRECTION ( 'NONE',  ( -0.0000000000000000000, 0.0000000000000000000, 1.000000000000000000 ) ) ;
#47 = AXIS2_PLACEMENT_3D ( 'NONE', #199, #87, #213 ) ;
#48 = MECHANICAL_CONTEXT ( 'NONE', #144, 'mechanical' ) ;
#49 = CARTESIAN_POINT ( 'NONE',  ( 7.499999999999999100, 2.499999999999999100, 500.0000000000000000 ) ) ;
#50 = CARTESIAN_POINT ( 'NONE',  ( -7.500000000000000000, -2.500000000000000900, 500.0000000000000000 ) ) ;
#51 = SECURITY_CLASSIFICATION_LEVEL ( 'unclassified' ) ;
#52 = AXIS2_PLACEMENT_3D ( 'NONE', #193, #7, #157 ) ;
#53 = LINE ( 'NONE', #24, #8 ) ;
#54 = PRODUCT_RELATED_PRODUCT_CATEGORY ( 'detail', '', ( #133 ) ) ;
#55 = LOCAL_TIME ( 13, 54, 29.00000000000000000, #108 ) ;
#56 = EDGE_CURVE ( 'NONE', #235, #59, #27, .T. ) ;
#57 = LINE ( 'NONE', #206, #62 ) ;
#58 = APPROVAL_DATE_TIME ( #113, #187 ) ;
#59 = VERTEX_POINT ( 'NONE', #145 ) ;
#60 = CARTESIAN_POINT ( 'NONE',  ( -7.500000000000000900, 2.499999999999999100, -500.0000000000000000 ) ) ;
#61 = APPLICATION_CONTEXT ( 'configuration controlled 3d designs of mechanical parts and assemblies' ) ;
#62 = VECTOR ( 'NONE', #98, 1000.000000000000000 ) ;
#63 = EDGE_LOOP ( 'NONE', ( #161, #138, #227, #217 ) ) ;
#64 = CC_DESIGN_SECURITY_CLASSIFICATION ( #136, ( #197 ) ) ;
#65 = LINE ( 'NONE', #39, #74 ) ;
#66 = APPROVAL_PERSON_ORGANIZATION ( #121, #187, #149 ) ;
#67 = MANIFOLD_SOLID_BREP ( 'ÎÞ½ - µoµ1', #232 ) ;
#68 = DIRECTION ( 'NONE',  ( 1.734723475976807100E-016, -1.000000000000000000, 0.0000000000000000000 ) ) ;
#69 = CALENDAR_DATE ( 2017, 2, 11 ) ;
#70 = LINE ( 'NONE', #49, #117 ) ;
#71 = DATE_TIME_ROLE ( 'classification_date' ) ;
#72 = ORIENTED_EDGE ( 'NONE', *, *, #84, .T. ) ;
#73 = ORIENTED_EDGE ( 'NONE', *, *, #114, .T. ) ;
#74 = VECTOR ( 'NONE', #167, 1000.000000000000000 ) ;
#75 = COORDINATED_UNIVERSAL_TIME_OFFSET ( 9, 0, .AHEAD. ) ;
#76 = DIRECTION ( 'NONE',  ( -0.0000000000000000000, -0.0000000000000000000, -1.000000000000000000 ) ) ;
#77 = PERSON_AND_ORGANIZATION ( #110, #131 ) ;
#78 = DIRECTION ( 'NONE',  ( -1.000000000000000000, -0.0000000000000000000, -0.0000000000000000000 ) ) ;
#79 = APPROVAL_DATE_TIME ( #132, #97 ) ;
#80 = EDGE_CURVE ( 'NONE', #235, #127, #70, .T. ) ;
#81 = ORIENTED_EDGE ( 'NONE', *, *, #150, .F. ) ;
#82 = VECTOR ( 'NONE', #68, 1000.000000000000000 ) ;
#83 = CC_DESIGN_APPROVAL ( #97, ( #136 ) ) ;
#84 = EDGE_CURVE ( 'NONE', #177, #171, #21, .T. ) ;
#85 =( LENGTH_UNIT ( ) NAMED_UNIT ( * ) SI_UNIT ( .MILLI., .METRE. ) );
#86 = APPROVAL_PERSON_ORGANIZATION ( #140, #97, #95 ) ;
#87 = DIRECTION ( 'NONE',  ( -1.000000000000000000, 0.0000000000000000000, 0.0000000000000000000 ) ) ;
#88 = APPROVAL_STATUS ( 'not_yet_approved' ) ;
#89 = FACE_OUTER_BOUND ( 'NONE', #63, .T. ) ;
#90 = ORIENTED_EDGE ( 'NONE', *, *, #56, .T. ) ;
#91 = ORIENTED_EDGE ( 'NONE', *, *, #195, .F. ) ;
#92 = CARTESIAN_POINT ( 'NONE',  ( -7.500000000000000900, 2.499999999999999100, 500.0000000000000000 ) ) ;
#93 = ADVANCED_BREP_SHAPE_REPRESENTATION ( 'sone3D', ( #67, #44 ), #10 ) ;
#94 = ADVANCED_FACE ( 'NONE', ( #169 ), #184, .T. ) ;
#95 = APPROVAL_ROLE ( '' ) ;
#96 = DESIGN_CONTEXT ( 'detailed design', #61, 'design' ) ;
#97 = APPROVAL ( #202, 'UNSPECIFIED' ) ;
#98 = DIRECTION ( 'NONE',  ( -0.0000000000000000000, 1.000000000000000000, -0.0000000000000000000 ) ) ;
#99 =( NAMED_UNIT ( * ) SI_UNIT ( $, .STERADIAN. ) SOLID_ANGLE_UNIT ( ) );
#100 = CARTESIAN_POINT ( 'NONE',  ( -7.500000000000000900, 2.499999999999999100, 500.0000000000000000 ) ) ;
#101 = PERSON_AND_ORGANIZATION_ROLE ( 'creator' ) ;
#102 = EDGE_CURVE ( 'NONE', #171, #235, #57, .T. ) ;
#103 = LINE ( 'NONE', #207, #12 ) ;
#104 = CC_DESIGN_DATE_AND_TIME_ASSIGNMENT ( #190, #71, ( #136 ) ) ;
#105 = DIRECTION ( 'NONE',  ( -0.0000000000000000000, -0.0000000000000000000, -1.000000000000000000 ) ) ;
#106 = ADVANCED_FACE ( 'NONE', ( #203 ), #194, .F. ) ;
#107 = PLANE ( 'NONE',  #35 ) ;
#108 = COORDINATED_UNIVERSAL_TIME_OFFSET ( 9, 0, .AHEAD. ) ;
#109 = DIRECTION ( 'NONE',  ( -0.0000000000000000000, 0.0000000000000000000, 1.000000000000000000 ) ) ;
#110 = PERSON ( 'UNSPECIFIED', 'UNSPECIFIED', 'UNSPECIFIED', ('UNSPECIFIED'), ('UNSPECIFIED'), ('UNSPECIFIED') ) ;
#111 = VECTOR ( 'NONE', #76, 1000.000000000000000 ) ;
#112 = ORIENTED_EDGE ( 'NONE', *, *, #156, .F. ) ;
#113 = DATE_AND_TIME ( #162, #210 ) ;
#114 = EDGE_CURVE ( 'NONE', #177, #116, #160, .T. ) ;
#115 = DIRECTION ( 'NONE',  ( 0.0000000000000000000, -1.000000000000000000, 0.0000000000000000000 ) ) ;
#116 = VERTEX_POINT ( 'NONE', #45 ) ;
#117 = VECTOR ( 'NONE', #159, 1000.000000000000000 ) ;
#118 = EDGE_CURVE ( 'NONE', #127, #226, #53, .T. ) ;
#119 = FACE_OUTER_BOUND ( 'NONE', #166, .T. ) ;
#120 = CC_DESIGN_PERSON_AND_ORGANIZATION_ASSIGNMENT ( #154, #192, ( #136 ) ) ;
#121 = PERSON_AND_ORGANIZATION ( #110, #131 ) ;
#122 = ORIENTED_EDGE ( 'NONE', *, *, #124, .F. ) ;
#123 = LOCAL_TIME ( 13, 54, 29.00000000000000000, #178 ) ;
#124 = EDGE_CURVE ( 'NONE', #171, #134, #103, .T. ) ;
#125 = APPLICATION_PROTOCOL_DEFINITION ( 'international standard', 'config_control_design', 1994, #144 ) ;
#126 = APPROVAL_STATUS ( 'not_yet_approved' ) ;
#127 = VERTEX_POINT ( 'NONE', #230 ) ;
#128 = VECTOR ( 'NONE', #1, 1000.000000000000000 ) ;
#129 = DIRECTION ( 'NONE',  ( 1.000000000000000000, 0.0000000000000000000, 0.0000000000000000000 ) ) ;
#130 = CARTESIAN_POINT ( 'NONE',  ( -7.500000000000000900, 2.499999999999999100, 500.0000000000000000 ) ) ;
#131 = ORGANIZATION ( 'UNSPECIFIED', 'UNSPECIFIED', '' ) ;
#132 = DATE_AND_TIME ( #181, #231 ) ;
#133 = PRODUCT ( 'sone3D', 'sone3D', '', ( #48 ) ) ;
#134 = VERTEX_POINT ( 'NONE', #220 ) ;
#135 = VECTOR ( 'NONE', #105, 1000.000000000000000 ) ;
#136 = SECURITY_CLASSIFICATION ( '', '', #51 ) ;
#137 = CARTESIAN_POINT ( 'NONE',  ( -7.500000000000000000, -2.500000000000000900, 500.0000000000000000 ) ) ;
#138 = ORIENTED_EDGE ( 'NONE', *, *, #80, .F. ) ;
#139 = EDGE_CURVE ( 'NONE', #116, #134, #151, .T. ) ;
#140 = PERSON_AND_ORGANIZATION ( #110, #131 ) ;
#141 = ORIENTED_EDGE ( 'NONE', *, *, #56, .F. ) ;
#142 = ORIENTED_EDGE ( 'NONE', *, *, #84, .F. ) ;
#143 = CARTESIAN_POINT ( 'NONE',  ( 0.0000000000000000000, 0.0000000000000000000, 500.0000000000000000 ) ) ;
#144 = APPLICATION_CONTEXT ( 'configuration controlled 3d designs of mechanical parts and assemblies' ) ;
#145 = CARTESIAN_POINT ( 'NONE',  ( -7.500000000000000900, 2.499999999999999100, 500.0000000000000000 ) ) ;
#146 = CC_DESIGN_PERSON_AND_ORGANIZATION_ASSIGNMENT ( #205, #170, ( #197 ) ) ;
#147 = CARTESIAN_POINT ( 'NONE',  ( -7.500000000000000900, 2.499999999999999100, 500.0000000000000000 ) ) ;
#148 = DIRECTION ( 'NONE',  ( -1.734723475976807100E-016, 1.000000000000000000, 0.0000000000000000000 ) ) ;
#149 = APPROVAL_ROLE ( '' ) ;
#150 = EDGE_CURVE ( 'NONE', #59, #226, #186, .T. ) ;
#151 = LINE ( 'NONE', #196, #38 ) ;
#152 = PRODUCT_DEFINITION_SHAPE ( 'NONE', 'NONE',  #14 ) ;
#153 = CC_DESIGN_PERSON_AND_ORGANIZATION_ASSIGNMENT ( #16, #41, ( #197 ) ) ;
#154 = PERSON_AND_ORGANIZATION ( #110, #131 ) ;
#155 = ORIENTED_EDGE ( 'NONE', *, *, #118, .T. ) ;
#156 = EDGE_CURVE ( 'NONE', #59, #177, #228, .T. ) ;
#157 = DIRECTION ( 'NONE',  ( 0.0000000000000000000, -0.0000000000000000000, 1.000000000000000000 ) ) ;
#158 = DIRECTION ( 'NONE',  ( 1.000000000000000000, 0.0000000000000000000, 0.0000000000000000000 ) ) ;
#159 = DIRECTION ( 'NONE',  ( -0.0000000000000000000, -0.0000000000000000000, -1.000000000000000000 ) ) ;
#160 = LINE ( 'NONE', #137, #111 ) ;
#161 = ORIENTED_EDGE ( 'NONE', *, *, #195, .T. ) ;
#162 = CALENDAR_DATE ( 2017, 2, 11 ) ;
#163 = ADVANCED_FACE ( 'NONE', ( #180 ), #2, .F. ) ;
#164 = CARTESIAN_POINT ( 'NONE',  ( 7.499999999999999100, -2.500000000000000900, 500.0000000000000000 ) ) ;
#165 = EDGE_CURVE ( 'NONE', #226, #116, #219, .T. ) ;
#166 = EDGE_LOOP ( 'NONE', ( #172, #122, #142, #73 ) ) ;
#167 = DIRECTION ( 'NONE',  ( -0.0000000000000000000, 1.000000000000000000, -0.0000000000000000000 ) ) ;
#168 = PERSON_AND_ORGANIZATION ( #110, #131 ) ;
#169 = FACE_OUTER_BOUND ( 'NONE', #20, .T. ) ;
#170 = PERSON_AND_ORGANIZATION_ROLE ( 'design_supplier' ) ;
#171 = VERTEX_POINT ( 'NONE', #164 ) ;
#172 = ORIENTED_EDGE ( 'NONE', *, *, #139, .T. ) ;
#173 = FACE_OUTER_BOUND ( 'NONE', #191, .T. ) ;
#174 = CC_DESIGN_APPROVAL ( #187, ( #197 ) ) ;
#175 = DATE_AND_TIME ( #222, #31 ) ;
#176 = DIRECTION ( 'NONE',  ( 1.000000000000000000, 0.0000000000000000000, 0.0000000000000000000 ) ) ;
#177 = VERTEX_POINT ( 'NONE', #50 ) ;
#178 = COORDINATED_UNIVERSAL_TIME_OFFSET ( 9, 0, .AHEAD. ) ;
#179 = ORIENTED_EDGE ( 'NONE', *, *, #139, .F. ) ;
#180 = FACE_OUTER_BOUND ( 'NONE', #185, .T. ) ;
#181 = CALENDAR_DATE ( 2017, 2, 11 ) ;
#182 = PLANE ( 'NONE',  #47 ) ;
#183 = PERSON_AND_ORGANIZATION_ROLE ( 'design_owner' ) ;
#184 = PLANE ( 'NONE',  #43 ) ;
#185 = EDGE_LOOP ( 'NONE', ( #37, #28, #112, #42 ) ) ;
#186 = LINE ( 'NONE', #92, #135 ) ;
#187 = APPROVAL ( #126, 'UNSPECIFIED' ) ;
#188 = ADVANCED_FACE ( 'NONE', ( #173 ), #107, .F. ) ;
#189 = CARTESIAN_POINT ( 'NONE',  ( -7.500000000000000900, 2.499999999999999100, -500.0000000000000000 ) ) ;
#190 = DATE_AND_TIME ( #9, #55 ) ;
#191 = EDGE_LOOP ( 'NONE', ( #29, #22, #91, #179 ) ) ;
#192 = PERSON_AND_ORGANIZATION_ROLE ( 'classification_officer' ) ;
#193 = CARTESIAN_POINT ( 'NONE',  ( -7.500000000000000000, -2.500000000000000900, 500.0000000000000000 ) ) ;
#194 = PLANE ( 'NONE',  #25 ) ;
#195 = EDGE_CURVE ( 'NONE', #134, #127, #65, .T. ) ;
#196 = CARTESIAN_POINT ( 'NONE',  ( -7.500000000000000000, -2.500000000000000900, -500.0000000000000000 ) ) ;
#197 = PRODUCT_DEFINITION_FORMATION_WITH_SPECIFIED_SOURCE ( 'ANY', '', #133, .NOT_KNOWN. ) ;
#198 = CARTESIAN_POINT ( 'NONE',  ( 0.0000000000000000000, 0.0000000000000000000, 0.0000000000000000000 ) ) ;
#199 = CARTESIAN_POINT ( 'NONE',  ( 7.499999999999999100, 2.499999999999999100, 500.0000000000000000 ) ) ;
#200 = APPLICATION_PROTOCOL_DEFINITION ( 'international standard', 'config_control_design', 1994, #61 ) ;
#201 = UNCERTAINTY_MEASURE_WITH_UNIT (LENGTH_MEASURE( 1.000000000000000100E-005 ), #85, 'distance_accuracy_value', 'NONE');
#202 = APPROVAL_STATUS ( 'not_yet_approved' ) ;
#203 = FACE_OUTER_BOUND ( 'NONE', #218, .T. ) ;
#204 = CC_DESIGN_DATE_AND_TIME_ASSIGNMENT ( #175, #237, ( #14 ) ) ;
#205 = PERSON_AND_ORGANIZATION ( #110, #131 ) ;
#206 = CARTESIAN_POINT ( 'NONE',  ( 7.499999999999999100, 2.499999999999999100, 500.0000000000000000 ) ) ;
#207 = CARTESIAN_POINT ( 'NONE',  ( 7.499999999999999100, -2.500000000000000900, 500.0000000000000000 ) ) ;
#208 = PLANE ( 'NONE',  #52 ) ;
#209 = VECTOR ( 'NONE', #36, 1000.000000000000000 ) ;
#210 = LOCAL_TIME ( 13, 54, 29.00000000000000000, #23 ) ;
#211 = APPROVAL_DATE_TIME ( #26, #5 ) ;
#212 =( NAMED_UNIT ( * ) PLANE_ANGLE_UNIT ( ) SI_UNIT ( $, .RADIAN. ) );
#213 = DIRECTION ( 'NONE',  ( 0.0000000000000000000, 0.0000000000000000000, 1.000000000000000000 ) ) ;
#214 = APPROVAL_ROLE ( '' ) ;
#215 = VECTOR ( 'NONE', #11, 1000.000000000000000 ) ;
#216 = DIRECTION ( 'NONE',  ( -0.0000000000000000000, -0.0000000000000000000, -1.000000000000000000 ) ) ;
#217 = ORIENTED_EDGE ( 'NONE', *, *, #124, .T. ) ;
#218 = EDGE_LOOP ( 'NONE', ( #155, #81, #141, #19 ) ) ;
#219 = LINE ( 'NONE', #189, #82 ) ;
#220 = CARTESIAN_POINT ( 'NONE',  ( 7.499999999999999100, -2.500000000000000900, -500.0000000000000000 ) ) ;
#221 = CC_DESIGN_PERSON_AND_ORGANIZATION_ASSIGNMENT ( #168, #101, ( #14 ) ) ;
#222 = CALENDAR_DATE ( 2017, 2, 11 ) ;
#223 = ORIENTED_EDGE ( 'NONE', *, *, #102, .T. ) ;
#224 = CARTESIAN_POINT ( 'NONE',  ( 0.0000000000000000000, 0.0000000000000000000, -500.0000000000000000 ) ) ;
#225 = APPROVAL_PERSON_ORGANIZATION ( #33, #5, #214 ) ;
#226 = VERTEX_POINT ( 'NONE', #60 ) ;
#227 = ORIENTED_EDGE ( 'NONE', *, *, #102, .F. ) ;
#228 = LINE ( 'NONE', #147, #128 ) ;
#229 = CARTESIAN_POINT ( 'NONE',  ( -7.500000000000000900, 2.499999999999999100, 500.0000000000000000 ) ) ;
#230 = CARTESIAN_POINT ( 'NONE',  ( 7.499999999999999100, 2.499999999999999100, -500.0000000000000000 ) ) ;
#231 = LOCAL_TIME ( 13, 54, 29.00000000000000000, #40 ) ;
#232 = CLOSED_SHELL ( 'NONE', ( #163, #3, #15, #106, #94, #188 ) ) ;
#233 = ORIENTED_EDGE ( 'NONE', *, *, #156, .T. ) ;
#234 = CC_DESIGN_APPROVAL ( #5, ( #14 ) ) ;
#235 = VERTEX_POINT ( 'NONE', #18 ) ;
#236 = CARTESIAN_POINT ( 'NONE',  ( -7.500000000000000000, -2.500000000000000900, 500.0000000000000000 ) ) ;
#237 = DATE_TIME_ROLE ( 'creation_date' ) ;
ENDSEC;
END-ISO-10303-21;
