ISO-10303-21;
HEADER;
FILE_DESCRIPTION (( 'STEP AP203' ),
    '1' );
FILE_NAME ('sone3D.STEP',
    '2017-11-02T04:54:13',
    ( '' ),
    ( '' ),
    'SwSTEP 2.0',
    'SolidWorks 2014',
    '' );
FILE_SCHEMA (( 'CONFIG_CONTROL_DESIGN' ));
ENDSEC;

DATA;
#1 = PERSON ( 'UNSPECIFIED', 'UNSPECIFIED', 'UNSPECIFIED', ('UNSPECIFIED'), ('UNSPECIFIED'), ('UNSPECIFIED') ) ;
#2 =( NAMED_UNIT ( * ) PLANE_ANGLE_UNIT ( ) SI_UNIT ( $, .RADIAN. ) );
#3 = PERSON_AND_ORGANIZATION ( #1, #237 ) ;
#4 = DIRECTION ( 'NONE',  ( 0.0000000000000000000, 1.000000000000000000, 0.0000000000000000000 ) ) ;
#5 = DIRECTION ( 'NONE',  ( 0.0000000000000000000, -0.0000000000000000000, -1.000000000000000000 ) ) ;
#6 = ORIENTED_EDGE ( 'NONE', *, *, #86, .T. ) ;
#7 = CARTESIAN_POINT ( 'NONE',  ( 4.999999999999999100, 2.500000000000000900, 500.0000000000000000 ) ) ;
#8 = VERTEX_POINT ( 'NONE', #45 ) ;
#9 = DIRECTION ( 'NONE',  ( -1.000000000000000000, -1.734723475976807100E-016, 0.0000000000000000000 ) ) ;
#10 = DIRECTION ( 'NONE',  ( -0.0000000000000000000, -0.0000000000000000000, -1.000000000000000000 ) ) ;
#11 = COORDINATED_UNIVERSAL_TIME_OFFSET ( 9, 0, .AHEAD. ) ;
#12 = ORIENTED_EDGE ( 'NONE', *, *, #120, .F. ) ;
#13 = CARTESIAN_POINT ( 'NONE',  ( -5.000000000000000900, 2.500000000000000900, -500.0000000000000000 ) ) ;
#14 = ORIENTED_EDGE ( 'NONE', *, *, #135, .T. ) ;
#15 = DIRECTION ( 'NONE',  ( -1.734723475976807100E-016, 1.000000000000000000, -0.0000000000000000000 ) ) ;
#16 = PRODUCT_RELATED_PRODUCT_CATEGORY ( 'detail', '', ( #41 ) ) ;
#17 = DIRECTION ( 'NONE',  ( -0.0000000000000000000, 0.0000000000000000000, 1.000000000000000000 ) ) ;
#18 = DATE_AND_TIME ( #63, #108 ) ;
#19 = CC_DESIGN_SECURITY_CLASSIFICATION ( #56, ( #151 ) ) ;
#20 = MECHANICAL_CONTEXT ( 'NONE', #166, 'mechanical' ) ;
#21 = VERTEX_POINT ( 'NONE', #113 ) ;
#22 = CARTESIAN_POINT ( 'NONE',  ( -5.000000000000000000, -2.499999999999999100, 500.0000000000000000 ) ) ;
#23 = PERSON_AND_ORGANIZATION ( #1, #237 ) ;
#24 = VERTEX_POINT ( 'NONE', #7 ) ;
#25 = LINE ( 'NONE', #143, #65 ) ;
#26 = AXIS2_PLACEMENT_3D ( 'NONE', #77, #55, #185 ) ;
#27 = CARTESIAN_POINT ( 'NONE',  ( 0.0000000000000000000, 0.0000000000000000000, 500.0000000000000000 ) ) ;
#28 = ORIENTED_EDGE ( 'NONE', *, *, #120, .T. ) ;
#29 = DIRECTION ( 'NONE',  ( 1.734723475976807100E-016, -1.000000000000000000, 0.0000000000000000000 ) ) ;
#30 = CC_DESIGN_APPROVAL ( #33, ( #56 ) ) ;
#31 = CARTESIAN_POINT ( 'NONE',  ( -5.000000000000000900, 2.500000000000000900, 500.0000000000000000 ) ) ;
#32 = PERSON_AND_ORGANIZATION_ROLE ( 'design_supplier' ) ;
#33 = APPROVAL ( #67, 'UNSPECIFIED' ) ;
#34 = DIRECTION ( 'NONE',  ( -0.0000000000000000000, 0.0000000000000000000, 1.000000000000000000 ) ) ;
#35 = VECTOR ( 'NONE', #116, 1000.000000000000000 ) ;
#36 = VECTOR ( 'NONE', #167, 1000.000000000000000 ) ;
#37 = DATE_AND_TIME ( #83, #132 ) ;
#38 = LINE ( 'NONE', #101, #207 ) ;
#39 = APPLICATION_CONTEXT ( 'configuration controlled 3d designs of mechanical parts and assemblies' ) ;
#40 = CC_DESIGN_DATE_AND_TIME_ASSIGNMENT ( #186, #174, ( #56 ) ) ;
#41 = PRODUCT ( 'sone3D', 'sone3D', '', ( #20 ) ) ;
#42 = MANIFOLD_SOLID_BREP ( 'ÎÞ½ - µoµ1', #157 ) ;
#43 = CC_DESIGN_PERSON_AND_ORGANIZATION_ASSIGNMENT ( #145, #48, ( #56 ) ) ;
#44 = LOCAL_TIME ( 13, 54, 13.00000000000000000, #89 ) ;
#45 = CARTESIAN_POINT ( 'NONE',  ( 5.000000000000000000, -2.499999999999999100, -500.0000000000000000 ) ) ;
#46 = ADVANCED_FACE ( 'NONE', ( #210 ), #134, .T. ) ;
#47 =( GEOMETRIC_REPRESENTATION_CONTEXT ( 3 ) GLOBAL_UNCERTAINTY_ASSIGNED_CONTEXT ( ( #236 ) ) GLOBAL_UNIT_ASSIGNED_CONTEXT ( ( #105, #2, #127 ) ) REPRESENTATION_CONTEXT ( 'NONE', 'WORKASPACE' ) );
#48 = PERSON_AND_ORGANIZATION_ROLE ( 'classification_officer' ) ;
#49 = APPROVAL_DATE_TIME ( #96, #146 ) ;
#50 = AXIS2_PLACEMENT_3D ( 'NONE', #188, #4, #131 ) ;
#51 = ORIENTED_EDGE ( 'NONE', *, *, #135, .F. ) ;
#52 = PLANE ( 'NONE',  #73 ) ;
#53 = ORIENTED_EDGE ( 'NONE', *, *, #136, .T. ) ;
#54 = APPROVAL_STATUS ( 'not_yet_approved' ) ;
#55 = DIRECTION ( 'NONE',  ( 0.0000000000000000000, 0.0000000000000000000, 1.000000000000000000 ) ) ;
#56 = SECURITY_CLASSIFICATION ( '', '', #158 ) ;
#57 = APPROVAL_PERSON_ORGANIZATION ( #99, #146, #215 ) ;
#58 = DIRECTION ( 'NONE',  ( -1.000000000000000000, -0.0000000000000000000, -0.0000000000000000000 ) ) ;
#59 = LOCAL_TIME ( 13, 54, 13.00000000000000000, #102 ) ;
#60 = EDGE_LOOP ( 'NONE', ( #14, #84, #106, #53 ) ) ;
#61 = AXIS2_PLACEMENT_3D ( 'NONE', #27, #17, #235 ) ;
#62 = EDGE_LOOP ( 'NONE', ( #74, #51, #161, #124 ) ) ;
#63 = CALENDAR_DATE ( 2017, 2, 11 ) ;
#64 = ADVANCED_FACE ( 'NONE', ( #230 ), #179, .F. ) ;
#65 = VECTOR ( 'NONE', #10, 1000.000000000000000 ) ;
#66 = PRODUCT_DEFINITION_SHAPE ( 'NONE', 'NONE',  #97 ) ;
#67 = APPROVAL_STATUS ( 'not_yet_approved' ) ;
#68 = EDGE_CURVE ( 'NONE', #160, #69, #110, .T. ) ;
#69 = VERTEX_POINT ( 'NONE', #182 ) ;
#70 = CC_DESIGN_PERSON_AND_ORGANIZATION_ASSIGNMENT ( #190, #32, ( #151 ) ) ;
#71 = CARTESIAN_POINT ( 'NONE',  ( 5.000000000000000000, -2.499999999999999100, 500.0000000000000000 ) ) ;
#72 = ORIENTED_EDGE ( 'NONE', *, *, #136, .F. ) ;
#73 = AXIS2_PLACEMENT_3D ( 'NONE', #183, #9, #29 ) ;
#74 = ORIENTED_EDGE ( 'NONE', *, *, #194, .F. ) ;
#75 = PERSON_AND_ORGANIZATION_ROLE ( 'creator' ) ;
#76 = DIRECTION ( 'NONE',  ( -1.734723475976807100E-016, 1.000000000000000000, -0.0000000000000000000 ) ) ;
#77 = CARTESIAN_POINT ( 'NONE',  ( 0.0000000000000000000, 0.0000000000000000000, 0.0000000000000000000 ) ) ;
#78 = ORIENTED_EDGE ( 'NONE', *, *, #212, .F. ) ;
#79 = LINE ( 'NONE', #142, #129 ) ;
#80 = CC_DESIGN_PERSON_AND_ORGANIZATION_ASSIGNMENT ( #3, #141, ( #151 ) ) ;
#81 = CC_DESIGN_APPROVAL ( #146, ( #151 ) ) ;
#82 = LINE ( 'NONE', #170, #222 ) ;
#83 = CALENDAR_DATE ( 2017, 2, 11 ) ;
#84 = ORIENTED_EDGE ( 'NONE', *, *, #197, .F. ) ;
#85 = LINE ( 'NONE', #187, #189 ) ;
#86 = EDGE_CURVE ( 'NONE', #8, #153, #38, .T. ) ;
#87 = APPROVAL_STATUS ( 'not_yet_approved' ) ;
#88 = CC_DESIGN_PERSON_AND_ORGANIZATION_ASSIGNMENT ( #23, #148, ( #41 ) ) ;
#89 = COORDINATED_UNIVERSAL_TIME_OFFSET ( 9, 0, .AHEAD. ) ;
#90 = PLANE ( 'NONE',  #159 ) ;
#91 = PLANE ( 'NONE',  #100 ) ;
#92 = AXIS2_PLACEMENT_3D ( 'NONE', #234, #34, #211 ) ;
#93 = ORIENTED_EDGE ( 'NONE', *, *, #104, .F. ) ;
#94 = DIRECTION ( 'NONE',  ( 1.000000000000000000, 1.734723475976807100E-016, -0.0000000000000000000 ) ) ;
#95 = DIRECTION ( 'NONE',  ( -0.0000000000000000000, -0.0000000000000000000, -1.000000000000000000 ) ) ;
#96 = DATE_AND_TIME ( #150, #196 ) ;
#97 = PRODUCT_DEFINITION ( 'UNKNOWN', '', #151, #140 ) ;
#98 = VERTEX_POINT ( 'NONE', #71 ) ;
#99 = PERSON_AND_ORGANIZATION ( #1, #237 ) ;
#100 = AXIS2_PLACEMENT_3D ( 'NONE', #220, #112, #5 ) ;
#101 = CARTESIAN_POINT ( 'NONE',  ( 4.999999999999999100, 2.500000000000000900, -500.0000000000000000 ) ) ;
#102 = COORDINATED_UNIVERSAL_TIME_OFFSET ( 9, 0, .AHEAD. ) ;
#103 = ORIENTED_EDGE ( 'NONE', *, *, #104, .T. ) ;
#104 = EDGE_CURVE ( 'NONE', #98, #8, #25, .T. ) ;
#105 =( LENGTH_UNIT ( ) NAMED_UNIT ( * ) SI_UNIT ( .MILLI., .METRE. ) );
#106 = ORIENTED_EDGE ( 'NONE', *, *, #209, .F. ) ;
#107 = ORIENTED_EDGE ( 'NONE', *, *, #68, .F. ) ;
#108 = LOCAL_TIME ( 13, 54, 13.00000000000000000, #162 ) ;
#109 = APPROVAL ( #54, 'UNSPECIFIED' ) ;
#110 = LINE ( 'NONE', #138, #163 ) ;
#111 = CARTESIAN_POINT ( 'NONE',  ( -5.000000000000000900, 2.500000000000000900, -500.0000000000000000 ) ) ;
#112 = DIRECTION ( 'NONE',  ( 0.0000000000000000000, -1.000000000000000000, 0.0000000000000000000 ) ) ;
#113 = CARTESIAN_POINT ( 'NONE',  ( -5.000000000000000900, 2.500000000000000900, -500.0000000000000000 ) ) ;
#114 = APPROVAL_PERSON_ORGANIZATION ( #173, #109, #184 ) ;
#115 = CARTESIAN_POINT ( 'NONE',  ( -5.000000000000000000, -2.499999999999999100, -500.0000000000000000 ) ) ;
#116 = DIRECTION ( 'NONE',  ( 1.734723475976807100E-016, -1.000000000000000000, 0.0000000000000000000 ) ) ;
#117 = CC_DESIGN_APPROVAL ( #109, ( #97 ) ) ;
#118 = ORIENTED_EDGE ( 'NONE', *, *, #225, .F. ) ;
#119 = CARTESIAN_POINT ( 'NONE',  ( -5.000000000000000900, 2.500000000000000900, 500.0000000000000000 ) ) ;
#120 = EDGE_CURVE ( 'NONE', #69, #206, #177, .T. ) ;
#121 = EDGE_LOOP ( 'NONE', ( #6, #72, #78, #103 ) ) ;
#122 = VECTOR ( 'NONE', #201, 1000.000000000000000 ) ;
#123 = FACE_OUTER_BOUND ( 'NONE', #193, .T. ) ;
#124 = ORIENTED_EDGE ( 'NONE', *, *, #232, .F. ) ;
#125 = VECTOR ( 'NONE', #219, 1000.000000000000000 ) ;
#126 = LINE ( 'NONE', #22, #122 ) ;
#127 =( NAMED_UNIT ( * ) SI_UNIT ( $, .STERADIAN. ) SOLID_ANGLE_UNIT ( ) );
#128 = CC_DESIGN_PERSON_AND_ORGANIZATION_ASSIGNMENT ( #156, #75, ( #97 ) ) ;
#129 = VECTOR ( 'NONE', #95, 1000.000000000000000 ) ;
#130 = LINE ( 'NONE', #168, #224 ) ;
#131 = DIRECTION ( 'NONE',  ( 0.0000000000000000000, -0.0000000000000000000, 1.000000000000000000 ) ) ;
#132 = LOCAL_TIME ( 13, 54, 13.00000000000000000, #181 ) ;
#133 = ORIENTED_EDGE ( 'NONE', *, *, #197, .T. ) ;
#134 = PLANE ( 'NONE',  #61 ) ;
#135 = EDGE_CURVE ( 'NONE', #153, #21, #172, .T. ) ;
#136 = EDGE_CURVE ( 'NONE', #24, #153, #79, .T. ) ;
#137 = PERSON_AND_ORGANIZATION ( #1, #237 ) ;
#138 = CARTESIAN_POINT ( 'NONE',  ( -5.000000000000000900, 2.500000000000000900, 500.0000000000000000 ) ) ;
#139 = ADVANCED_FACE ( 'NONE', ( #223 ), #52, .F. ) ;
#140 = DESIGN_CONTEXT ( 'detailed design', #39, 'design' ) ;
#141 = PERSON_AND_ORGANIZATION_ROLE ( 'creator' ) ;
#142 = CARTESIAN_POINT ( 'NONE',  ( 4.999999999999999100, 2.500000000000000900, 500.0000000000000000 ) ) ;
#143 = CARTESIAN_POINT ( 'NONE',  ( 5.000000000000000000, -2.499999999999999100, 500.0000000000000000 ) ) ;
#144 = CC_DESIGN_DATE_AND_TIME_ASSIGNMENT ( #154, #199, ( #97 ) ) ;
#145 = PERSON_AND_ORGANIZATION ( #1, #237 ) ;
#146 = APPROVAL ( #87, 'UNSPECIFIED' ) ;
#147 = SHAPE_DEFINITION_REPRESENTATION ( #66, #191 ) ;
#148 = PERSON_AND_ORGANIZATION_ROLE ( 'design_owner' ) ;
#149 = APPLICATION_PROTOCOL_DEFINITION ( 'international standard', 'config_control_design', 1994, #166 ) ;
#150 = CALENDAR_DATE ( 2017, 2, 11 ) ;
#151 = PRODUCT_DEFINITION_FORMATION_WITH_SPECIFIED_SOURCE ( 'ANY', '', #41, .NOT_KNOWN. ) ;
#152 = ORIENTED_EDGE ( 'NONE', *, *, #212, .T. ) ;
#153 = VERTEX_POINT ( 'NONE', #164 ) ;
#154 = DATE_AND_TIME ( #200, #59 ) ;
#155 = ADVANCED_FACE ( 'NONE', ( #180 ), #90, .F. ) ;
#156 = PERSON_AND_ORGANIZATION ( #1, #237 ) ;
#157 = CLOSED_SHELL ( 'NONE', ( #155, #208, #139, #228, #46, #64 ) ) ;
#158 = SECURITY_CLASSIFICATION_LEVEL ( 'unclassified' ) ;
#159 = AXIS2_PLACEMENT_3D ( 'NONE', #203, #94, #229 ) ;
#160 = VERTEX_POINT ( 'NONE', #31 ) ;
#161 = ORIENTED_EDGE ( 'NONE', *, *, #86, .F. ) ;
#162 = COORDINATED_UNIVERSAL_TIME_OFFSET ( 9, 0, .AHEAD. ) ;
#163 = VECTOR ( 'NONE', #227, 1000.000000000000000 ) ;
#164 = CARTESIAN_POINT ( 'NONE',  ( 4.999999999999999100, 2.500000000000000900, -500.0000000000000000 ) ) ;
#165 = APPLICATION_PROTOCOL_DEFINITION ( 'international standard', 'config_control_design', 1994, #39 ) ;
#166 = APPLICATION_CONTEXT ( 'configuration controlled 3d designs of mechanical parts and assemblies' ) ;
#167 = DIRECTION ( 'NONE',  ( -0.0000000000000000000, -0.0000000000000000000, -1.000000000000000000 ) ) ;
#168 = CARTESIAN_POINT ( 'NONE',  ( -5.000000000000000900, 2.500000000000000900, 500.0000000000000000 ) ) ;
#169 = ORIENTED_EDGE ( 'NONE', *, *, #209, .T. ) ;
#170 = CARTESIAN_POINT ( 'NONE',  ( 4.999999999999999100, 2.500000000000000900, 500.0000000000000000 ) ) ;
#171 = ORIENTED_EDGE ( 'NONE', *, *, #232, .T. ) ;
#172 = LINE ( 'NONE', #13, #125 ) ;
#173 = PERSON_AND_ORGANIZATION ( #1, #237 ) ;
#174 = DATE_TIME_ROLE ( 'classification_date' ) ;
#175 = ORIENTED_EDGE ( 'NONE', *, *, #68, .T. ) ;
#176 = ORIENTED_EDGE ( 'NONE', *, *, #194, .T. ) ;
#177 = LINE ( 'NONE', #205, #221 ) ;
#178 = PLANE ( 'NONE',  #50 ) ;
#179 = PLANE ( 'NONE',  #92 ) ;
#180 = FACE_OUTER_BOUND ( 'NONE', #198, .T. ) ;
#181 = COORDINATED_UNIVERSAL_TIME_OFFSET ( 9, 0, .AHEAD. ) ;
#182 = CARTESIAN_POINT ( 'NONE',  ( -5.000000000000000000, -2.499999999999999100, 500.0000000000000000 ) ) ;
#183 = CARTESIAN_POINT ( 'NONE',  ( 4.999999999999999100, 2.500000000000000900, 500.0000000000000000 ) ) ;
#184 = APPROVAL_ROLE ( '' ) ;
#185 = DIRECTION ( 'NONE',  ( 1.000000000000000000, 0.0000000000000000000, 0.0000000000000000000 ) ) ;
#186 = DATE_AND_TIME ( #233, #44 ) ;
#187 = CARTESIAN_POINT ( 'NONE',  ( -5.000000000000000000, -2.499999999999999100, -500.0000000000000000 ) ) ;
#188 = CARTESIAN_POINT ( 'NONE',  ( -5.000000000000000000, -2.499999999999999100, 500.0000000000000000 ) ) ;
#189 = VECTOR ( 'NONE', #214, 1000.000000000000000 ) ;
#190 = PERSON_AND_ORGANIZATION ( #1, #237 ) ;
#191 = ADVANCED_BREP_SHAPE_REPRESENTATION ( 'sone3D', ( #42, #26 ), #47 ) ;
#192 = APPROVAL_ROLE ( '' ) ;
#193 = EDGE_LOOP ( 'NONE', ( #171, #93, #118, #28 ) ) ;
#194 = EDGE_CURVE ( 'NONE', #21, #206, #217, .T. ) ;
#195 = EDGE_LOOP ( 'NONE', ( #175, #213, #152, #169 ) ) ;
#196 = LOCAL_TIME ( 13, 54, 13.00000000000000000, #11 ) ;
#197 = EDGE_CURVE ( 'NONE', #160, #21, #204, .T. ) ;
#198 = EDGE_LOOP ( 'NONE', ( #176, #12, #107, #133 ) ) ;
#199 = DATE_TIME_ROLE ( 'creation_date' ) ;
#200 = CALENDAR_DATE ( 2017, 2, 11 ) ;
#201 = DIRECTION ( 'NONE',  ( 1.000000000000000000, 0.0000000000000000000, 0.0000000000000000000 ) ) ;
#202 = APPROVAL_DATE_TIME ( #18, #109 ) ;
#203 = CARTESIAN_POINT ( 'NONE',  ( -5.000000000000000900, 2.500000000000000900, 500.0000000000000000 ) ) ;
#204 = LINE ( 'NONE', #119, #36 ) ;
#205 = CARTESIAN_POINT ( 'NONE',  ( -5.000000000000000000, -2.499999999999999100, 500.0000000000000000 ) ) ;
#206 = VERTEX_POINT ( 'NONE', #115 ) ;
#207 = VECTOR ( 'NONE', #15, 1000.000000000000000 ) ;
#208 = ADVANCED_FACE ( 'NONE', ( #123 ), #178, .F. ) ;
#209 = EDGE_CURVE ( 'NONE', #24, #160, #130, .T. ) ;
#210 = FACE_OUTER_BOUND ( 'NONE', #195, .T. ) ;
#211 = DIRECTION ( 'NONE',  ( 1.000000000000000000, 0.0000000000000000000, 0.0000000000000000000 ) ) ;
#212 = EDGE_CURVE ( 'NONE', #98, #24, #82, .T. ) ;
#213 = ORIENTED_EDGE ( 'NONE', *, *, #225, .T. ) ;
#214 = DIRECTION ( 'NONE',  ( 1.000000000000000000, 0.0000000000000000000, 0.0000000000000000000 ) ) ;
#215 = APPROVAL_ROLE ( '' ) ;
#216 = FACE_OUTER_BOUND ( 'NONE', #60, .T. ) ;
#217 = LINE ( 'NONE', #111, #35 ) ;
#218 = APPROVAL_DATE_TIME ( #37, #33 ) ;
#219 = DIRECTION ( 'NONE',  ( -1.000000000000000000, -0.0000000000000000000, -0.0000000000000000000 ) ) ;
#220 = CARTESIAN_POINT ( 'NONE',  ( -5.000000000000000900, 2.500000000000000900, 500.0000000000000000 ) ) ;
#221 = VECTOR ( 'NONE', #231, 1000.000000000000000 ) ;
#222 = VECTOR ( 'NONE', #76, 1000.000000000000000 ) ;
#223 = FACE_OUTER_BOUND ( 'NONE', #121, .T. ) ;
#224 = VECTOR ( 'NONE', #58, 1000.000000000000000 ) ;
#225 = EDGE_CURVE ( 'NONE', #69, #98, #126, .T. ) ;
#226 = APPROVAL_PERSON_ORGANIZATION ( #137, #33, #192 ) ;
#227 = DIRECTION ( 'NONE',  ( 1.734723475976807100E-016, -1.000000000000000000, 0.0000000000000000000 ) ) ;
#228 = ADVANCED_FACE ( 'NONE', ( #216 ), #91, .F. ) ;
#229 = DIRECTION ( 'NONE',  ( -1.734723475976807100E-016, 1.000000000000000000, 0.0000000000000000000 ) ) ;
#230 = FACE_OUTER_BOUND ( 'NONE', #62, .T. ) ;
#231 = DIRECTION ( 'NONE',  ( -0.0000000000000000000, -0.0000000000000000000, -1.000000000000000000 ) ) ;
#232 = EDGE_CURVE ( 'NONE', #206, #8, #85, .T. ) ;
#233 = CALENDAR_DATE ( 2017, 2, 11 ) ;
#234 = CARTESIAN_POINT ( 'NONE',  ( 0.0000000000000000000, 0.0000000000000000000, -500.0000000000000000 ) ) ;
#235 = DIRECTION ( 'NONE',  ( 1.000000000000000000, 0.0000000000000000000, 0.0000000000000000000 ) ) ;
#236 = UNCERTAINTY_MEASURE_WITH_UNIT (LENGTH_MEASURE( 1.000000000000000100E-005 ), #105, 'distance_accuracy_value', 'NONE');
#237 = ORGANIZATION ( 'UNSPECIFIED', 'UNSPECIFIED', '' ) ;
ENDSEC;
END-ISO-10303-21;
