ISO-10303-21;
HEADER;
FILE_DESCRIPTION (( 'STEP AP203' ),
    '1' );
FILE_NAME ('sone3D.STEP',
    '2017-11-02T04:53:57',
    ( '' ),
    ( '' ),
    'SwSTEP 2.0',
    'SolidWorks 2014',
    '' );
FILE_SCHEMA (( 'CONFIG_CONTROL_DESIGN' ));
ENDSEC;

DATA;
#1 = APPROVAL ( #169, 'UNSPECIFIED' ) ;
#2 = DATE_AND_TIME ( #51, #90 ) ;
#3 = EDGE_CURVE ( 'NONE', #133, #237, #73, .T. ) ;
#4 = PERSON_AND_ORGANIZATION ( #161, #52 ) ;
#5 = DIRECTION ( 'NONE',  ( 0.0000000000000000000, -0.0000000000000000000, -1.000000000000000000 ) ) ;
#6 = CARTESIAN_POINT ( 'NONE',  ( -2.500000000000000900, 1.499999999999999600, 500.0000000000000000 ) ) ;
#7 = PERSON_AND_ORGANIZATION_ROLE ( 'creator' ) ;
#8 = DIRECTION ( 'NONE',  ( -1.445602896647339200E-016, 1.000000000000000000, -0.0000000000000000000 ) ) ;
#9 = LOCAL_TIME ( 13, 53, 57.00000000000000000, #64 ) ;
#10 = DIRECTION ( 'NONE',  ( 1.000000000000000000, 0.0000000000000000000, 0.0000000000000000000 ) ) ;
#11 = CARTESIAN_POINT ( 'NONE',  ( -2.500000000000000000, -1.500000000000000400, 500.0000000000000000 ) ) ;
#12 = PERSON_AND_ORGANIZATION ( #161, #52 ) ;
#13 = CARTESIAN_POINT ( 'NONE',  ( 0.0000000000000000000, 0.0000000000000000000, 0.0000000000000000000 ) ) ;
#14 = ORIENTED_EDGE ( 'NONE', *, *, #192, .F. ) ;
#15 = APPLICATION_PROTOCOL_DEFINITION ( 'international standard', 'config_control_design', 1994, #92 ) ;
#16 = PRODUCT_DEFINITION ( 'UNKNOWN', '', #187, #54 ) ;
#17 = VECTOR ( 'NONE', #190, 1000.000000000000000 ) ;
#18 = SECURITY_CLASSIFICATION_LEVEL ( 'unclassified' ) ;
#19 = APPROVAL_STATUS ( 'not_yet_approved' ) ;
#20 = APPROVAL_PERSON_ORGANIZATION ( #87, #171, #104 ) ;
#21 = EDGE_CURVE ( 'NONE', #174, #35, #165, .T. ) ;
#22 = PERSON_AND_ORGANIZATION ( #161, #52 ) ;
#23 = DIRECTION ( 'NONE',  ( 0.0000000000000000000, 1.000000000000000000, 0.0000000000000000000 ) ) ;
#24 = FACE_OUTER_BOUND ( 'NONE', #184, .T. ) ;
#25 = DIRECTION ( 'NONE',  ( -2.891205793294678300E-016, 1.000000000000000000, 0.0000000000000000000 ) ) ;
#26 = CARTESIAN_POINT ( 'NONE',  ( -2.500000000000000000, -1.500000000000000400, -500.0000000000000000 ) ) ;
#27 = DIRECTION ( 'NONE',  ( -1.000000000000000000, -0.0000000000000000000, -0.0000000000000000000 ) ) ;
#28 = CC_DESIGN_PERSON_AND_ORGANIZATION_ASSIGNMENT ( #4, #31, ( #57 ) ) ;
#29 = DIRECTION ( 'NONE',  ( -0.0000000000000000000, -0.0000000000000000000, -1.000000000000000000 ) ) ;
#30 = EDGE_CURVE ( 'NONE', #237, #179, #220, .T. ) ;
#31 = PERSON_AND_ORGANIZATION_ROLE ( 'design_owner' ) ;
#32 = CARTESIAN_POINT ( 'NONE',  ( -2.500000000000000900, 1.499999999999999600, 500.0000000000000000 ) ) ;
#33 = VECTOR ( 'NONE', #8, 1000.000000000000000 ) ;
#34 = DATE_TIME_ROLE ( 'classification_date' ) ;
#35 = VERTEX_POINT ( 'NONE', #44 ) ;
#36 = AXIS2_PLACEMENT_3D ( 'NONE', #13, #235, #111 ) ;
#37 = ORIENTED_EDGE ( 'NONE', *, *, #40, .F. ) ;
#38 = VECTOR ( 'NONE', #143, 1000.000000000000000 ) ;
#39 = ORIENTED_EDGE ( 'NONE', *, *, #158, .F. ) ;
#40 = EDGE_CURVE ( 'NONE', #179, #35, #61, .T. ) ;
#41 = PLANE ( 'NONE',  #152 ) ;
#42 = ORIENTED_EDGE ( 'NONE', *, *, #132, .T. ) ;
#43 = DIRECTION ( 'NONE',  ( 1.000000000000000000, 0.0000000000000000000, 0.0000000000000000000 ) ) ;
#44 = CARTESIAN_POINT ( 'NONE',  ( -2.500000000000000900, 1.499999999999999600, -500.0000000000000000 ) ) ;
#45 = ORIENTED_EDGE ( 'NONE', *, *, #205, .F. ) ;
#46 =( LENGTH_UNIT ( ) NAMED_UNIT ( * ) SI_UNIT ( .MILLI., .METRE. ) );
#47 = LINE ( 'NONE', #203, #38 ) ;
#48 = ORIENTED_EDGE ( 'NONE', *, *, #3, .T. ) ;
#49 = CARTESIAN_POINT ( 'NONE',  ( 2.499999999999999600, 1.499999999999999600, 500.0000000000000000 ) ) ;
#50 = APPLICATION_PROTOCOL_DEFINITION ( 'international standard', 'config_control_design', 1994, #149 ) ;
#51 = CALENDAR_DATE ( 2017, 2, 11 ) ;
#52 = ORGANIZATION ( 'UNSPECIFIED', 'UNSPECIFIED', '' ) ;
#53 = PRODUCT_RELATED_PRODUCT_CATEGORY ( 'detail', '', ( #57 ) ) ;
#54 = DESIGN_CONTEXT ( 'detailed design', #149, 'design' ) ;
#55 = CALENDAR_DATE ( 2017, 2, 11 ) ;
#56 = DATE_AND_TIME ( #98, #150 ) ;
#57 = PRODUCT ( 'sone3D', 'sone3D', '', ( #127 ) ) ;
#58 = PERSON_AND_ORGANIZATION ( #161, #52 ) ;
#59 = CARTESIAN_POINT ( 'NONE',  ( -2.500000000000000000, -1.500000000000000400, 500.0000000000000000 ) ) ;
#60 = VERTEX_POINT ( 'NONE', #186 ) ;
#61 = LINE ( 'NONE', #32, #17 ) ;
#62 = CARTESIAN_POINT ( 'NONE',  ( 0.0000000000000000000, 0.0000000000000000000, 500.0000000000000000 ) ) ;
#63 = CARTESIAN_POINT ( 'NONE',  ( 2.499999999999999600, 1.499999999999999600, 500.0000000000000000 ) ) ;
#64 = COORDINATED_UNIVERSAL_TIME_OFFSET ( 9, 0, .AHEAD. ) ;
#65 =( NAMED_UNIT ( * ) PLANE_ANGLE_UNIT ( ) SI_UNIT ( $, .RADIAN. ) );
#66 = CC_DESIGN_SECURITY_CLASSIFICATION ( #114, ( #187 ) ) ;
#67 = APPROVAL_ROLE ( '' ) ;
#68 = VECTOR ( 'NONE', #162, 1000.000000000000000 ) ;
#69 = ADVANCED_FACE ( 'NONE', ( #99 ), #89, .F. ) ;
#70 = DIRECTION ( 'NONE',  ( 1.000000000000000000, 0.0000000000000000000, 0.0000000000000000000 ) ) ;
#71 = AXIS2_PLACEMENT_3D ( 'NONE', #63, #232, #108 ) ;
#72 = CC_DESIGN_APPROVAL ( #82, ( #114 ) ) ;
#73 = LINE ( 'NONE', #227, #33 ) ;
#74 = DIRECTION ( 'NONE',  ( 1.000000000000000000, 0.0000000000000000000, 0.0000000000000000000 ) ) ;
#75 = ORIENTED_EDGE ( 'NONE', *, *, #30, .F. ) ;
#76 = ORIENTED_EDGE ( 'NONE', *, *, #145, .T. ) ;
#77 = AXIS2_PLACEMENT_3D ( 'NONE', #62, #189, #74 ) ;
#78 = EDGE_LOOP ( 'NONE', ( #234, #80, #170, #121 ) ) ;
#79 = LINE ( 'NONE', #222, #156 ) ;
#80 = ORIENTED_EDGE ( 'NONE', *, *, #21, .F. ) ;
#81 = EDGE_LOOP ( 'NONE', ( #168, #37, #75, #83 ) ) ;
#82 = APPROVAL ( #19, 'UNSPECIFIED' ) ;
#83 = ORIENTED_EDGE ( 'NONE', *, *, #233, .T. ) ;
#84 = VERTEX_POINT ( 'NONE', #11 ) ;
#85 = PLANE ( 'NONE',  #197 ) ;
#86 = DATE_TIME_ROLE ( 'creation_date' ) ;
#87 = PERSON_AND_ORGANIZATION ( #161, #52 ) ;
#88 =( GEOMETRIC_REPRESENTATION_CONTEXT ( 3 ) GLOBAL_UNCERTAINTY_ASSIGNED_CONTEXT ( ( #116 ) ) GLOBAL_UNIT_ASSIGNED_CONTEXT ( ( #46, #65, #195 ) ) REPRESENTATION_CONTEXT ( 'NONE', 'WORKASPACE' ) );
#89 = PLANE ( 'NONE',  #71 ) ;
#90 = LOCAL_TIME ( 13, 53, 57.00000000000000000, #137 ) ;
#91 = SHAPE_DEFINITION_REPRESENTATION ( #221, #208 ) ;
#92 = APPLICATION_CONTEXT ( 'configuration controlled 3d designs of mechanical parts and assemblies' ) ;
#93 = CC_DESIGN_DATE_AND_TIME_ASSIGNMENT ( #56, #34, ( #114 ) ) ;
#94 = LINE ( 'NONE', #226, #217 ) ;
#95 = LOCAL_TIME ( 13, 53, 57.00000000000000000, #144 ) ;
#96 = PERSON_AND_ORGANIZATION ( #161, #52 ) ;
#97 = CALENDAR_DATE ( 2017, 2, 11 ) ;
#98 = CALENDAR_DATE ( 2017, 2, 11 ) ;
#99 = FACE_OUTER_BOUND ( 'NONE', #229, .T. ) ;
#100 = AXIS2_PLACEMENT_3D ( 'NONE', #157, #181, #70 ) ;
#101 = PERSON_AND_ORGANIZATION ( #161, #52 ) ;
#102 = DIRECTION ( 'NONE',  ( 0.0000000000000000000, -1.000000000000000000, 0.0000000000000000000 ) ) ;
#103 = VECTOR ( 'NONE', #43, 1000.000000000000000 ) ;
#104 = APPROVAL_ROLE ( '' ) ;
#105 = CARTESIAN_POINT ( 'NONE',  ( 2.500000000000000000, -1.500000000000000400, -500.0000000000000000 ) ) ;
#106 = CC_DESIGN_PERSON_AND_ORGANIZATION_ASSIGNMENT ( #22, #130, ( #114 ) ) ;
#107 = CARTESIAN_POINT ( 'NONE',  ( -2.500000000000000000, -1.500000000000000400, 500.0000000000000000 ) ) ;
#108 = DIRECTION ( 'NONE',  ( 1.445602896647339200E-016, -1.000000000000000000, 0.0000000000000000000 ) ) ;
#109 = CARTESIAN_POINT ( 'NONE',  ( -2.500000000000000900, 1.499999999999999600, 500.0000000000000000 ) ) ;
#110 = LINE ( 'NONE', #212, #68 ) ;
#111 = DIRECTION ( 'NONE',  ( 1.000000000000000000, 0.0000000000000000000, 0.0000000000000000000 ) ) ;
#112 = VECTOR ( 'NONE', #27, 1000.000000000000000 ) ;
#113 = PERSON_AND_ORGANIZATION_ROLE ( 'design_supplier' ) ;
#114 = SECURITY_CLASSIFICATION ( '', '', #18 ) ;
#115 = LINE ( 'NONE', #138, #159 ) ;
#116 = UNCERTAINTY_MEASURE_WITH_UNIT (LENGTH_MEASURE( 1.000000000000000100E-005 ), #46, 'distance_accuracy_value', 'NONE');
#117 = ORIENTED_EDGE ( 'NONE', *, *, #132, .F. ) ;
#118 = PLANE ( 'NONE',  #136 ) ;
#119 = DIRECTION ( 'NONE',  ( 1.000000000000000000, 2.891205793294678300E-016, -0.0000000000000000000 ) ) ;
#120 = DIRECTION ( 'NONE',  ( 2.891205793294678300E-016, -1.000000000000000000, 0.0000000000000000000 ) ) ;
#121 = ORIENTED_EDGE ( 'NONE', *, *, #175, .F. ) ;
#122 = FACE_OUTER_BOUND ( 'NONE', #78, .T. ) ;
#123 = EDGE_LOOP ( 'NONE', ( #42, #178, #48, #191 ) ) ;
#124 = CARTESIAN_POINT ( 'NONE',  ( -2.500000000000000900, 1.499999999999999600, 500.0000000000000000 ) ) ;
#125 = LINE ( 'NONE', #107, #182 ) ;
#126 = EDGE_LOOP ( 'NONE', ( #236, #14, #45, #129 ) ) ;
#127 = MECHANICAL_CONTEXT ( 'NONE', #92, 'mechanical' ) ;
#128 = CC_DESIGN_PERSON_AND_ORGANIZATION_ASSIGNMENT ( #58, #113, ( #187 ) ) ;
#129 = ORIENTED_EDGE ( 'NONE', *, *, #158, .T. ) ;
#130 = PERSON_AND_ORGANIZATION_ROLE ( 'classification_officer' ) ;
#131 = APPROVAL_ROLE ( '' ) ;
#132 = EDGE_CURVE ( 'NONE', #179, #84, #142, .T. ) ;
#133 = VERTEX_POINT ( 'NONE', #183 ) ;
#134 = DATE_AND_TIME ( #196, #9 ) ;
#135 = DIRECTION ( 'NONE',  ( 0.0000000000000000000, -0.0000000000000000000, 1.000000000000000000 ) ) ;
#136 = AXIS2_PLACEMENT_3D ( 'NONE', #59, #23, #135 ) ;
#137 = COORDINATED_UNIVERSAL_TIME_OFFSET ( 9, 0, .AHEAD. ) ;
#138 = CARTESIAN_POINT ( 'NONE',  ( 2.500000000000000000, -1.500000000000000400, 500.0000000000000000 ) ) ;
#139 = CARTESIAN_POINT ( 'NONE',  ( 2.499999999999999600, 1.499999999999999600, -500.0000000000000000 ) ) ;
#140 = CARTESIAN_POINT ( 'NONE',  ( -2.500000000000000900, 1.499999999999999600, -500.0000000000000000 ) ) ;
#141 = CC_DESIGN_PERSON_AND_ORGANIZATION_ASSIGNMENT ( #96, #7, ( #187 ) ) ;
#142 = LINE ( 'NONE', #124, #151 ) ;
#143 = DIRECTION ( 'NONE',  ( -1.445602896647339200E-016, 1.000000000000000000, -0.0000000000000000000 ) ) ;
#144 = COORDINATED_UNIVERSAL_TIME_OFFSET ( 9, 0, .AHEAD. ) ;
#145 = EDGE_CURVE ( 'NONE', #35, #60, #94, .T. ) ;
#146 = APPROVAL_DATE_TIME ( #206, #171 ) ;
#147 = LOCAL_TIME ( 13, 53, 57.00000000000000000, #207 ) ;
#148 = VERTEX_POINT ( 'NONE', #105 ) ;
#149 = APPLICATION_CONTEXT ( 'configuration controlled 3d designs of mechanical parts and assemblies' ) ;
#150 = LOCAL_TIME ( 13, 53, 57.00000000000000000, #209 ) ;
#151 = VECTOR ( 'NONE', #167, 1000.000000000000000 ) ;
#152 = AXIS2_PLACEMENT_3D ( 'NONE', #224, #102, #5 ) ;
#153 = APPROVAL_DATE_TIME ( #211, #1 ) ;
#154 = LINE ( 'NONE', #26, #103 ) ;
#155 = CC_DESIGN_APPROVAL ( #171, ( #187 ) ) ;
#156 = VECTOR ( 'NONE', #29, 1000.000000000000000 ) ;
#157 = CARTESIAN_POINT ( 'NONE',  ( 0.0000000000000000000, 0.0000000000000000000, -500.0000000000000000 ) ) ;
#158 = EDGE_CURVE ( 'NONE', #84, #60, #110, .T. ) ;
#159 = VECTOR ( 'NONE', #160, 1000.000000000000000 ) ;
#160 = DIRECTION ( 'NONE',  ( -0.0000000000000000000, -0.0000000000000000000, -1.000000000000000000 ) ) ;
#161 = PERSON ( 'UNSPECIFIED', 'UNSPECIFIED', 'UNSPECIFIED', ('UNSPECIFIED'), ('UNSPECIFIED'), ('UNSPECIFIED') ) ;
#162 = DIRECTION ( 'NONE',  ( -0.0000000000000000000, -0.0000000000000000000, -1.000000000000000000 ) ) ;
#163 = DIRECTION ( 'NONE',  ( -1.000000000000000000, -0.0000000000000000000, -0.0000000000000000000 ) ) ;
#164 = MANIFOLD_SOLID_BREP ( 'ÎÞ½ - µoµ1', #188 ) ;
#165 = LINE ( 'NONE', #140, #112 ) ;
#166 = PLANE ( 'NONE',  #77 ) ;
#167 = DIRECTION ( 'NONE',  ( 2.891205793294678300E-016, -1.000000000000000000, 0.0000000000000000000 ) ) ;
#168 = ORIENTED_EDGE ( 'NONE', *, *, #21, .T. ) ;
#169 = APPROVAL_STATUS ( 'not_yet_approved' ) ;
#170 = ORIENTED_EDGE ( 'NONE', *, *, #218, .F. ) ;
#171 = APPROVAL ( #225, 'UNSPECIFIED' ) ;
#172 = ORIENTED_EDGE ( 'NONE', *, *, #40, .T. ) ;
#173 = FACE_OUTER_BOUND ( 'NONE', #123, .T. ) ;
#174 = VERTEX_POINT ( 'NONE', #139 ) ;
#175 = EDGE_CURVE ( 'NONE', #60, #148, #154, .T. ) ;
#176 = ADVANCED_FACE ( 'NONE', ( #24 ), #85, .F. ) ;
#177 = ADVANCED_FACE ( 'NONE', ( #213 ), #41, .F. ) ;
#178 = ORIENTED_EDGE ( 'NONE', *, *, #205, .T. ) ;
#179 = VERTEX_POINT ( 'NONE', #223 ) ;
#180 = ORIENTED_EDGE ( 'NONE', *, *, #233, .F. ) ;
#181 = DIRECTION ( 'NONE',  ( -0.0000000000000000000, 0.0000000000000000000, 1.000000000000000000 ) ) ;
#182 = VECTOR ( 'NONE', #10, 1000.000000000000000 ) ;
#183 = CARTESIAN_POINT ( 'NONE',  ( 2.500000000000000000, -1.500000000000000400, 500.0000000000000000 ) ) ;
#184 = EDGE_LOOP ( 'NONE', ( #76, #39, #117, #172 ) ) ;
#185 = PLANE ( 'NONE',  #100 ) ;
#186 = CARTESIAN_POINT ( 'NONE',  ( -2.500000000000000000, -1.500000000000000400, -500.0000000000000000 ) ) ;
#187 = PRODUCT_DEFINITION_FORMATION_WITH_SPECIFIED_SOURCE ( 'ANY', '', #57, .NOT_KNOWN. ) ;
#188 = CLOSED_SHELL ( 'NONE', ( #176, #198, #69, #177, #219, #200 ) ) ;
#189 = DIRECTION ( 'NONE',  ( -0.0000000000000000000, 0.0000000000000000000, 1.000000000000000000 ) ) ;
#190 = DIRECTION ( 'NONE',  ( -0.0000000000000000000, -0.0000000000000000000, -1.000000000000000000 ) ) ;
#191 = ORIENTED_EDGE ( 'NONE', *, *, #30, .T. ) ;
#192 = EDGE_CURVE ( 'NONE', #133, #148, #115, .T. ) ;
#193 = APPROVAL_DATE_TIME ( #2, #82 ) ;
#194 = PERSON_AND_ORGANIZATION ( #161, #52 ) ;
#195 =( NAMED_UNIT ( * ) SI_UNIT ( $, .STERADIAN. ) SOLID_ANGLE_UNIT ( ) );
#196 = CALENDAR_DATE ( 2017, 2, 11 ) ;
#197 = AXIS2_PLACEMENT_3D ( 'NONE', #6, #119, #25 ) ;
#198 = ADVANCED_FACE ( 'NONE', ( #202 ), #118, .F. ) ;
#199 = APPROVAL_PERSON_ORGANIZATION ( #12, #82, #131 ) ;
#200 = ADVANCED_FACE ( 'NONE', ( #122 ), #185, .F. ) ;
#201 = CC_DESIGN_DATE_AND_TIME_ASSIGNMENT ( #134, #86, ( #16 ) ) ;
#202 = FACE_OUTER_BOUND ( 'NONE', #126, .T. ) ;
#203 = CARTESIAN_POINT ( 'NONE',  ( 2.499999999999999600, 1.499999999999999600, -500.0000000000000000 ) ) ;
#204 = APPROVAL_PERSON_ORGANIZATION ( #194, #1, #67 ) ;
#205 = EDGE_CURVE ( 'NONE', #84, #133, #125, .T. ) ;
#206 = DATE_AND_TIME ( #97, #147 ) ;
#207 = COORDINATED_UNIVERSAL_TIME_OFFSET ( 9, 0, .AHEAD. ) ;
#208 = ADVANCED_BREP_SHAPE_REPRESENTATION ( 'sone3D', ( #164, #36 ), #88 ) ;
#209 = COORDINATED_UNIVERSAL_TIME_OFFSET ( 9, 0, .AHEAD. ) ;
#210 = VECTOR ( 'NONE', #163, 1000.000000000000000 ) ;
#211 = DATE_AND_TIME ( #55, #95 ) ;
#212 = CARTESIAN_POINT ( 'NONE',  ( -2.500000000000000000, -1.500000000000000400, 500.0000000000000000 ) ) ;
#213 = FACE_OUTER_BOUND ( 'NONE', #81, .T. ) ;
#214 = PERSON_AND_ORGANIZATION_ROLE ( 'creator' ) ;
#215 = ORIENTED_EDGE ( 'NONE', *, *, #3, .F. ) ;
#216 = CC_DESIGN_PERSON_AND_ORGANIZATION_ASSIGNMENT ( #101, #214, ( #16 ) ) ;
#217 = VECTOR ( 'NONE', #120, 1000.000000000000000 ) ;
#218 = EDGE_CURVE ( 'NONE', #148, #174, #47, .T. ) ;
#219 = ADVANCED_FACE ( 'NONE', ( #173 ), #166, .T. ) ;
#220 = LINE ( 'NONE', #109, #210 ) ;
#221 = PRODUCT_DEFINITION_SHAPE ( 'NONE', 'NONE',  #16 ) ;
#222 = CARTESIAN_POINT ( 'NONE',  ( 2.499999999999999600, 1.499999999999999600, 500.0000000000000000 ) ) ;
#223 = CARTESIAN_POINT ( 'NONE',  ( -2.500000000000000900, 1.499999999999999600, 500.0000000000000000 ) ) ;
#224 = CARTESIAN_POINT ( 'NONE',  ( -2.500000000000000900, 1.499999999999999600, 500.0000000000000000 ) ) ;
#225 = APPROVAL_STATUS ( 'not_yet_approved' ) ;
#226 = CARTESIAN_POINT ( 'NONE',  ( -2.500000000000000900, 1.499999999999999600, -500.0000000000000000 ) ) ;
#227 = CARTESIAN_POINT ( 'NONE',  ( 2.499999999999999600, 1.499999999999999600, 500.0000000000000000 ) ) ;
#228 = ORIENTED_EDGE ( 'NONE', *, *, #192, .T. ) ;
#229 = EDGE_LOOP ( 'NONE', ( #231, #180, #215, #228 ) ) ;
#230 = CC_DESIGN_APPROVAL ( #1, ( #16 ) ) ;
#231 = ORIENTED_EDGE ( 'NONE', *, *, #218, .T. ) ;
#232 = DIRECTION ( 'NONE',  ( -1.000000000000000000, -1.445602896647339200E-016, 0.0000000000000000000 ) ) ;
#233 = EDGE_CURVE ( 'NONE', #237, #174, #79, .T. ) ;
#234 = ORIENTED_EDGE ( 'NONE', *, *, #145, .F. ) ;
#235 = DIRECTION ( 'NONE',  ( 0.0000000000000000000, 0.0000000000000000000, 1.000000000000000000 ) ) ;
#236 = ORIENTED_EDGE ( 'NONE', *, *, #175, .T. ) ;
#237 = VERTEX_POINT ( 'NONE', #49 ) ;
ENDSEC;
END-ISO-10303-21;
