ISO-10303-21;
HEADER;
FILE_DESCRIPTION (( 'STEP AP203' ),
    '1' );
FILE_NAME ('sone3D.STEP',
    '2017-11-02T04:53:38',
    ( '' ),
    ( '' ),
    'SwSTEP 2.0',
    'SolidWorks 2014',
    '' );
FILE_SCHEMA (( 'CONFIG_CONTROL_DESIGN' ));
ENDSEC;

DATA;
#1 = CARTESIAN_POINT ( 'NONE',  ( -15.00000000000000000, 1.499999999999999300, 500.0000000000000000 ) ) ;
#2 = ADVANCED_FACE ( 'NONE', ( #199 ), #145, .F. ) ;
#3 = PERSON_AND_ORGANIZATION ( #76, #118 ) ;
#4 = CC_DESIGN_SECURITY_CLASSIFICATION ( #28, ( #44 ) ) ;
#5 = CARTESIAN_POINT ( 'NONE',  ( -15.00000000000000000, -1.500000000000000700, 500.0000000000000000 ) ) ;
#6 = PRODUCT ( 'sone3D', 'sone3D', '', ( #234 ) ) ;
#7 = DIRECTION ( 'NONE',  ( 1.000000000000000000, 0.0000000000000000000, 0.0000000000000000000 ) ) ;
#8 = VECTOR ( 'NONE', #188, 1000.000000000000000 ) ;
#9 = LINE ( 'NONE', #46, #151 ) ;
#10 = CC_DESIGN_APPROVAL ( #12, ( #28 ) ) ;
#11 = CALENDAR_DATE ( 2017, 2, 11 ) ;
#12 = APPROVAL ( #98, 'UNSPECIFIED' ) ;
#13 = CC_DESIGN_DATE_AND_TIME_ASSIGNMENT ( #82, #211, ( #28 ) ) ;
#14 = LINE ( 'NONE', #48, #8 ) ;
#15 = LINE ( 'NONE', #62, #197 ) ;
#16 = CC_DESIGN_PERSON_AND_ORGANIZATION_ASSIGNMENT ( #3, #84, ( #28 ) ) ;
#17 = APPLICATION_CONTEXT ( 'configuration controlled 3d designs of mechanical parts and assemblies' ) ;
#18 = LINE ( 'NONE', #121, #198 ) ;
#19 = ORIENTED_EDGE ( 'NONE', *, *, #233, .F. ) ;
#20 = ORIENTED_EDGE ( 'NONE', *, *, #169, .F. ) ;
#21 = VECTOR ( 'NONE', #153, 1000.000000000000000 ) ;
#22 = EDGE_LOOP ( 'NONE', ( #208, #20, #172, #70 ) ) ;
#23 = LINE ( 'NONE', #168, #205 ) ;
#24 = DIRECTION ( 'NONE',  ( 0.0000000000000000000, -0.0000000000000000000, 1.000000000000000000 ) ) ;
#25 = PERSON_AND_ORGANIZATION ( #76, #118 ) ;
#26 = EDGE_LOOP ( 'NONE', ( #177, #74, #163, #209 ) ) ;
#27 = ORIENTED_EDGE ( 'NONE', *, *, #106, .T. ) ;
#28 = SECURITY_CLASSIFICATION ( '', '', #189 ) ;
#29 = CARTESIAN_POINT ( 'NONE',  ( 0.0000000000000000000, 0.0000000000000000000, -500.0000000000000000 ) ) ;
#30 = DIRECTION ( 'NONE',  ( 1.000000000000000000, 0.0000000000000000000, -0.0000000000000000000 ) ) ;
#31 = CC_DESIGN_PERSON_AND_ORGANIZATION_ASSIGNMENT ( #52, #66, ( #44 ) ) ;
#32 = ORIENTED_EDGE ( 'NONE', *, *, #201, .T. ) ;
#33 = CARTESIAN_POINT ( 'NONE',  ( 14.99999999999999800, -1.500000000000000700, -500.0000000000000000 ) ) ;
#34 = CC_DESIGN_PERSON_AND_ORGANIZATION_ASSIGNMENT ( #95, #176, ( #44 ) ) ;
#35 = LINE ( 'NONE', #136, #21 ) ;
#36 = ORIENTED_EDGE ( 'NONE', *, *, #201, .F. ) ;
#37 = ORIENTED_EDGE ( 'NONE', *, *, #94, .T. ) ;
#38 = PERSON_AND_ORGANIZATION ( #76, #118 ) ;
#39 = APPROVAL_STATUS ( 'not_yet_approved' ) ;
#40 = CC_DESIGN_APPROVAL ( #42, ( #44 ) ) ;
#41 = FACE_OUTER_BOUND ( 'NONE', #171, .T. ) ;
#42 = APPROVAL ( #71, 'UNSPECIFIED' ) ;
#43 = CARTESIAN_POINT ( 'NONE',  ( -15.00000000000000000, 1.499999999999999300, 500.0000000000000000 ) ) ;
#44 = PRODUCT_DEFINITION_FORMATION_WITH_SPECIFIED_SOURCE ( 'ANY', '', #6, .NOT_KNOWN. ) ;
#45 = DIRECTION ( 'NONE',  ( -0.0000000000000000000, -0.0000000000000000000, -1.000000000000000000 ) ) ;
#46 = CARTESIAN_POINT ( 'NONE',  ( 15.00000000000000000, 1.499999999999999300, -500.0000000000000000 ) ) ;
#47 = CC_DESIGN_DATE_AND_TIME_ASSIGNMENT ( #186, #180, ( #73 ) ) ;
#48 = CARTESIAN_POINT ( 'NONE',  ( -15.00000000000000000, -1.500000000000000700, -500.0000000000000000 ) ) ;
#49 = DIRECTION ( 'NONE',  ( 0.0000000000000000000, 0.0000000000000000000, 1.000000000000000000 ) ) ;
#50 = PRODUCT_RELATED_PRODUCT_CATEGORY ( 'detail', '', ( #6 ) ) ;
#51 = LOCAL_TIME ( 13, 53, 38.00000000000000000, #92 ) ;
#52 = PERSON_AND_ORGANIZATION ( #76, #118 ) ;
#53 = PERSON_AND_ORGANIZATION_ROLE ( 'creator' ) ;
#54 = LINE ( 'NONE', #174, #157 ) ;
#55 = VECTOR ( 'NONE', #184, 1000.000000000000000 ) ;
#56 = LOCAL_TIME ( 13, 53, 38.00000000000000000, #101 ) ;
#57 = AXIS2_PLACEMENT_3D ( 'NONE', #5, #133, #24 ) ;
#58 = DIRECTION ( 'NONE',  ( 0.0000000000000000000, -1.000000000000000000, 0.0000000000000000000 ) ) ;
#59 = ADVANCED_FACE ( 'NONE', ( #41 ), #91, .T. ) ;
#60 = CARTESIAN_POINT ( 'NONE',  ( -15.00000000000000000, 1.499999999999999300, 500.0000000000000000 ) ) ;
#61 = FACE_OUTER_BOUND ( 'NONE', #81, .T. ) ;
#62 = CARTESIAN_POINT ( 'NONE',  ( -15.00000000000000000, 1.499999999999999300, 500.0000000000000000 ) ) ;
#63 =( GEOMETRIC_REPRESENTATION_CONTEXT ( 3 ) GLOBAL_UNCERTAINTY_ASSIGNED_CONTEXT ( ( #78 ) ) GLOBAL_UNIT_ASSIGNED_CONTEXT ( ( #97, #228, #119 ) ) REPRESENTATION_CONTEXT ( 'NONE', 'WORKASPACE' ) );
#64 = CALENDAR_DATE ( 2017, 2, 11 ) ;
#65 = ORIENTED_EDGE ( 'NONE', *, *, #158, .F. ) ;
#66 = PERSON_AND_ORGANIZATION_ROLE ( 'design_supplier' ) ;
#67 = VERTEX_POINT ( 'NONE', #185 ) ;
#68 = AXIS2_PLACEMENT_3D ( 'NONE', #206, #49, #175 ) ;
#69 = PERSON_AND_ORGANIZATION ( #76, #118 ) ;
#70 = ORIENTED_EDGE ( 'NONE', *, *, #85, .T. ) ;
#71 = APPROVAL_STATUS ( 'not_yet_approved' ) ;
#72 = CC_DESIGN_PERSON_AND_ORGANIZATION_ASSIGNMENT ( #69, #127, ( #6 ) ) ;
#73 = PRODUCT_DEFINITION ( 'UNKNOWN', '', #44, #139 ) ;
#74 = ORIENTED_EDGE ( 'NONE', *, *, #182, .F. ) ;
#75 = ADVANCED_FACE ( 'NONE', ( #61 ), #200, .F. ) ;
#76 = PERSON ( 'UNSPECIFIED', 'UNSPECIFIED', 'UNSPECIFIED', ('UNSPECIFIED'), ('UNSPECIFIED'), ('UNSPECIFIED') ) ;
#77 = APPROVAL ( #39, 'UNSPECIFIED' ) ;
#78 = UNCERTAINTY_MEASURE_WITH_UNIT (LENGTH_MEASURE( 1.000000000000000100E-005 ), #97, 'distance_accuracy_value', 'NONE');
#79 = DIRECTION ( 'NONE',  ( 5.782411586589356700E-016, 1.000000000000000000, -0.0000000000000000000 ) ) ;
#80 = VERTEX_POINT ( 'NONE', #148 ) ;
#81 = EDGE_LOOP ( 'NONE', ( #155, #223, #65, #181 ) ) ;
#82 = DATE_AND_TIME ( #131, #179 ) ;
#83 = CC_DESIGN_PERSON_AND_ORGANIZATION_ASSIGNMENT ( #142, #53, ( #73 ) ) ;
#84 = PERSON_AND_ORGANIZATION_ROLE ( 'classification_officer' ) ;
#85 = EDGE_CURVE ( 'NONE', #125, #130, #196, .T. ) ;
#86 = VERTEX_POINT ( 'NONE', #33 ) ;
#87 = AXIS2_PLACEMENT_3D ( 'NONE', #135, #30, #149 ) ;
#88 = APPROVAL_PERSON_ORGANIZATION ( #140, #42, #195 ) ;
#89 = AXIS2_PLACEMENT_3D ( 'NONE', #29, #167, #227 ) ;
#90 = DIRECTION ( 'NONE',  ( -0.0000000000000000000, -0.0000000000000000000, -1.000000000000000000 ) ) ;
#91 = PLANE ( 'NONE',  #132 ) ;
#92 = COORDINATED_UNIVERSAL_TIME_OFFSET ( 9, 0, .AHEAD. ) ;
#93 = DIRECTION ( 'NONE',  ( -5.782411586589356700E-016, -1.000000000000000000, 0.0000000000000000000 ) ) ;
#94 = EDGE_CURVE ( 'NONE', #124, #86, #14, .T. ) ;
#95 = PERSON_AND_ORGANIZATION ( #76, #118 ) ;
#96 = CC_DESIGN_APPROVAL ( #77, ( #73 ) ) ;
#97 =( LENGTH_UNIT ( ) NAMED_UNIT ( * ) SI_UNIT ( .MILLI., .METRE. ) );
#98 = APPROVAL_STATUS ( 'not_yet_approved' ) ;
#99 = VECTOR ( 'NONE', #152, 1000.000000000000000 ) ;
#100 = VECTOR ( 'NONE', #229, 1000.000000000000000 ) ;
#101 = COORDINATED_UNIVERSAL_TIME_OFFSET ( 9, 0, .AHEAD. ) ;
#102 = ORIENTED_EDGE ( 'NONE', *, *, #182, .T. ) ;
#103 = VECTOR ( 'NONE', #224, 1000.000000000000000 ) ;
#104 = EDGE_CURVE ( 'NONE', #80, #124, #54, .T. ) ;
#105 = CARTESIAN_POINT ( 'NONE',  ( -15.00000000000000000, -1.500000000000000700, -500.0000000000000000 ) ) ;
#106 = EDGE_CURVE ( 'NONE', #125, #120, #15, .T. ) ;
#107 = APPROVAL_DATE_TIME ( #159, #12 ) ;
#108 = VERTEX_POINT ( 'NONE', #143 ) ;
#109 = LINE ( 'NONE', #210, #100 ) ;
#110 = LOCAL_TIME ( 13, 53, 38.00000000000000000, #161 ) ;
#111 = ORIENTED_EDGE ( 'NONE', *, *, #85, .F. ) ;
#112 = EDGE_LOOP ( 'NONE', ( #213, #111, #222, #32 ) ) ;
#113 = PLANE ( 'NONE',  #137 ) ;
#114 = DIRECTION ( 'NONE',  ( -0.0000000000000000000, 0.0000000000000000000, 1.000000000000000000 ) ) ;
#115 = PLANE ( 'NONE',  #87 ) ;
#116 = CARTESIAN_POINT ( 'NONE',  ( -15.00000000000000000, -1.500000000000000700, 500.0000000000000000 ) ) ;
#117 = DIRECTION ( 'NONE',  ( 5.782411586589356700E-016, 1.000000000000000000, -0.0000000000000000000 ) ) ;
#118 = ORGANIZATION ( 'UNSPECIFIED', 'UNSPECIFIED', '' ) ;
#119 =( NAMED_UNIT ( * ) SI_UNIT ( $, .STERADIAN. ) SOLID_ANGLE_UNIT ( ) );
#120 = VERTEX_POINT ( 'NONE', #43 ) ;
#121 = CARTESIAN_POINT ( 'NONE',  ( 14.99999999999999800, -1.500000000000000700, 500.0000000000000000 ) ) ;
#122 = MANIFOLD_SOLID_BREP ( 'ÎÞ½ - µoµ1', #232 ) ;
#123 = DIRECTION ( 'NONE',  ( 0.0000000000000000000, -0.0000000000000000000, -1.000000000000000000 ) ) ;
#124 = VERTEX_POINT ( 'NONE', #105 ) ;
#125 = VERTEX_POINT ( 'NONE', #236 ) ;
#126 = LOCAL_TIME ( 13, 53, 38.00000000000000000, #173 ) ;
#127 = PERSON_AND_ORGANIZATION_ROLE ( 'design_owner' ) ;
#128 = VECTOR ( 'NONE', #117, 1000.000000000000000 ) ;
#129 = DIRECTION ( 'NONE',  ( -1.000000000000000000, -0.0000000000000000000, -0.0000000000000000000 ) ) ;
#130 = VERTEX_POINT ( 'NONE', #183 ) ;
#131 = CALENDAR_DATE ( 2017, 2, 11 ) ;
#132 = AXIS2_PLACEMENT_3D ( 'NONE', #221, #114, #7 ) ;
#133 = DIRECTION ( 'NONE',  ( 0.0000000000000000000, 1.000000000000000000, 0.0000000000000000000 ) ) ;
#134 = CARTESIAN_POINT ( 'NONE',  ( 15.00000000000000000, 1.499999999999999300, 500.0000000000000000 ) ) ;
#135 = CARTESIAN_POINT ( 'NONE',  ( -15.00000000000000000, 1.499999999999999300, 500.0000000000000000 ) ) ;
#136 = CARTESIAN_POINT ( 'NONE',  ( -15.00000000000000000, 1.499999999999999300, -500.0000000000000000 ) ) ;
#137 = AXIS2_PLACEMENT_3D ( 'NONE', #170, #202, #93 ) ;
#138 = APPLICATION_PROTOCOL_DEFINITION ( 'international standard', 'config_control_design', 1994, #154 ) ;
#139 = DESIGN_CONTEXT ( 'detailed design', #17, 'design' ) ;
#140 = PERSON_AND_ORGANIZATION ( #76, #118 ) ;
#141 = APPLICATION_PROTOCOL_DEFINITION ( 'international standard', 'config_control_design', 1994, #17 ) ;
#142 = PERSON_AND_ORGANIZATION ( #76, #118 ) ;
#143 = CARTESIAN_POINT ( 'NONE',  ( -15.00000000000000000, -1.500000000000000700, 500.0000000000000000 ) ) ;
#144 = FACE_OUTER_BOUND ( 'NONE', #178, .T. ) ;
#145 = PLANE ( 'NONE',  #190 ) ;
#146 = ADVANCED_FACE ( 'NONE', ( #193 ), #115, .F. ) ;
#147 = APPROVAL_DATE_TIME ( #194, #42 ) ;
#148 = CARTESIAN_POINT ( 'NONE',  ( -15.00000000000000000, 1.499999999999999300, -500.0000000000000000 ) ) ;
#149 = DIRECTION ( 'NONE',  ( -0.0000000000000000000, 0.0000000000000000000, -1.000000000000000000 ) ) ;
#150 = DATE_AND_TIME ( #64, #110 ) ;
#151 = VECTOR ( 'NONE', #79, 1000.000000000000000 ) ;
#152 = DIRECTION ( 'NONE',  ( -0.0000000000000000000, -0.0000000000000000000, -1.000000000000000000 ) ) ;
#153 = DIRECTION ( 'NONE',  ( -1.000000000000000000, -0.0000000000000000000, -0.0000000000000000000 ) ) ;
#154 = APPLICATION_CONTEXT ( 'configuration controlled 3d designs of mechanical parts and assemblies' ) ;
#155 = ORIENTED_EDGE ( 'NONE', *, *, #104, .F. ) ;
#156 = FACE_OUTER_BOUND ( 'NONE', #112, .T. ) ;
#157 = VECTOR ( 'NONE', #215, 1000.000000000000000 ) ;
#158 = EDGE_CURVE ( 'NONE', #86, #130, #9, .T. ) ;
#159 = DATE_AND_TIME ( #204, #126 ) ;
#160 = LINE ( 'NONE', #225, #128 ) ;
#161 = COORDINATED_UNIVERSAL_TIME_OFFSET ( 9, 0, .AHEAD. ) ;
#162 = APPROVAL_ROLE ( '' ) ;
#163 = ORIENTED_EDGE ( 'NONE', *, *, #187, .F. ) ;
#164 = ORIENTED_EDGE ( 'NONE', *, *, #187, .T. ) ;
#165 = PLANE ( 'NONE',  #57 ) ;
#166 = ADVANCED_FACE ( 'NONE', ( #144 ), #165, .F. ) ;
#167 = DIRECTION ( 'NONE',  ( -0.0000000000000000000, 0.0000000000000000000, 1.000000000000000000 ) ) ;
#168 = CARTESIAN_POINT ( 'NONE',  ( -15.00000000000000000, -1.500000000000000700, 500.0000000000000000 ) ) ;
#169 = EDGE_CURVE ( 'NONE', #120, #80, #192, .T. ) ;
#170 = CARTESIAN_POINT ( 'NONE',  ( 15.00000000000000000, 1.499999999999999300, 500.0000000000000000 ) ) ;
#171 = EDGE_LOOP ( 'NONE', ( #164, #217, #216, #27 ) ) ;
#172 = ORIENTED_EDGE ( 'NONE', *, *, #106, .F. ) ;
#173 = COORDINATED_UNIVERSAL_TIME_OFFSET ( 9, 0, .AHEAD. ) ;
#174 = CARTESIAN_POINT ( 'NONE',  ( -15.00000000000000000, 1.499999999999999300, -500.0000000000000000 ) ) ;
#175 = DIRECTION ( 'NONE',  ( 1.000000000000000000, 0.0000000000000000000, 0.0000000000000000000 ) ) ;
#176 = PERSON_AND_ORGANIZATION_ROLE ( 'creator' ) ;
#177 = ORIENTED_EDGE ( 'NONE', *, *, #104, .T. ) ;
#178 = EDGE_LOOP ( 'NONE', ( #37, #36, #19, #102 ) ) ;
#179 = LOCAL_TIME ( 13, 53, 38.00000000000000000, #226 ) ;
#180 = DATE_TIME_ROLE ( 'creation_date' ) ;
#181 = ORIENTED_EDGE ( 'NONE', *, *, #94, .F. ) ;
#182 = EDGE_CURVE ( 'NONE', #108, #124, #23, .T. ) ;
#183 = CARTESIAN_POINT ( 'NONE',  ( 15.00000000000000000, 1.499999999999999300, -500.0000000000000000 ) ) ;
#184 = DIRECTION ( 'NONE',  ( -0.0000000000000000000, -0.0000000000000000000, -1.000000000000000000 ) ) ;
#185 = CARTESIAN_POINT ( 'NONE',  ( 14.99999999999999800, -1.500000000000000700, 500.0000000000000000 ) ) ;
#186 = DATE_AND_TIME ( #237, #51 ) ;
#187 = EDGE_CURVE ( 'NONE', #120, #108, #109, .T. ) ;
#188 = DIRECTION ( 'NONE',  ( 1.000000000000000000, 0.0000000000000000000, 0.0000000000000000000 ) ) ;
#189 = SECURITY_CLASSIFICATION_LEVEL ( 'unclassified' ) ;
#190 = AXIS2_PLACEMENT_3D ( 'NONE', #1, #58, #123 ) ;
#191 = APPROVAL_DATE_TIME ( #150, #77 ) ;
#192 = LINE ( 'NONE', #60, #55 ) ;
#193 = FACE_OUTER_BOUND ( 'NONE', #26, .T. ) ;
#194 = DATE_AND_TIME ( #11, #56 ) ;
#195 = APPROVAL_ROLE ( '' ) ;
#196 = LINE ( 'NONE', #134, #99 ) ;
#197 = VECTOR ( 'NONE', #129, 1000.000000000000000 ) ;
#198 = VECTOR ( 'NONE', #90, 1000.000000000000000 ) ;
#199 = FACE_OUTER_BOUND ( 'NONE', #22, .T. ) ;
#200 = PLANE ( 'NONE',  #89 ) ;
#201 = EDGE_CURVE ( 'NONE', #67, #86, #18, .T. ) ;
#202 = DIRECTION ( 'NONE',  ( -1.000000000000000000, 5.782411586589356700E-016, 0.0000000000000000000 ) ) ;
#203 = SHAPE_DEFINITION_REPRESENTATION ( #212, #231 ) ;
#204 = CALENDAR_DATE ( 2017, 2, 11 ) ;
#205 = VECTOR ( 'NONE', #45, 1000.000000000000000 ) ;
#206 = CARTESIAN_POINT ( 'NONE',  ( 0.0000000000000000000, 0.0000000000000000000, 0.0000000000000000000 ) ) ;
#207 = APPROVAL_PERSON_ORGANIZATION ( #25, #77, #162 ) ;
#208 = ORIENTED_EDGE ( 'NONE', *, *, #235, .T. ) ;
#209 = ORIENTED_EDGE ( 'NONE', *, *, #169, .T. ) ;
#210 = CARTESIAN_POINT ( 'NONE',  ( -15.00000000000000000, 1.499999999999999300, 500.0000000000000000 ) ) ;
#211 = DATE_TIME_ROLE ( 'classification_date' ) ;
#212 = PRODUCT_DEFINITION_SHAPE ( 'NONE', 'NONE',  #73 ) ;
#213 = ORIENTED_EDGE ( 'NONE', *, *, #158, .T. ) ;
#214 = LINE ( 'NONE', #116, #103 ) ;
#215 = DIRECTION ( 'NONE',  ( 0.0000000000000000000, -1.000000000000000000, 0.0000000000000000000 ) ) ;
#216 = ORIENTED_EDGE ( 'NONE', *, *, #220, .T. ) ;
#217 = ORIENTED_EDGE ( 'NONE', *, *, #233, .T. ) ;
#218 = APPROVAL_PERSON_ORGANIZATION ( #38, #12, #230 ) ;
#219 = ADVANCED_FACE ( 'NONE', ( #156 ), #113, .F. ) ;
#220 = EDGE_CURVE ( 'NONE', #67, #125, #160, .T. ) ;
#221 = CARTESIAN_POINT ( 'NONE',  ( 0.0000000000000000000, 0.0000000000000000000, 500.0000000000000000 ) ) ;
#222 = ORIENTED_EDGE ( 'NONE', *, *, #220, .F. ) ;
#223 = ORIENTED_EDGE ( 'NONE', *, *, #235, .F. ) ;
#224 = DIRECTION ( 'NONE',  ( 1.000000000000000000, 0.0000000000000000000, 0.0000000000000000000 ) ) ;
#225 = CARTESIAN_POINT ( 'NONE',  ( 15.00000000000000000, 1.499999999999999300, 500.0000000000000000 ) ) ;
#226 = COORDINATED_UNIVERSAL_TIME_OFFSET ( 9, 0, .AHEAD. ) ;
#227 = DIRECTION ( 'NONE',  ( 1.000000000000000000, 0.0000000000000000000, 0.0000000000000000000 ) ) ;
#228 =( NAMED_UNIT ( * ) PLANE_ANGLE_UNIT ( ) SI_UNIT ( $, .RADIAN. ) );
#229 = DIRECTION ( 'NONE',  ( 0.0000000000000000000, -1.000000000000000000, 0.0000000000000000000 ) ) ;
#230 = APPROVAL_ROLE ( '' ) ;
#231 = ADVANCED_BREP_SHAPE_REPRESENTATION ( 'sone3D', ( #122, #68 ), #63 ) ;
#232 = CLOSED_SHELL ( 'NONE', ( #146, #166, #219, #2, #59, #75 ) ) ;
#233 = EDGE_CURVE ( 'NONE', #108, #67, #214, .T. ) ;
#234 = MECHANICAL_CONTEXT ( 'NONE', #154, 'mechanical' ) ;
#235 = EDGE_CURVE ( 'NONE', #130, #80, #35, .T. ) ;
#236 = CARTESIAN_POINT ( 'NONE',  ( 15.00000000000000000, 1.499999999999999300, 500.0000000000000000 ) ) ;
#237 = CALENDAR_DATE ( 2017, 2, 11 ) ;
ENDSEC;
END-ISO-10303-21;
