ISO-10303-21;
HEADER;
FILE_DESCRIPTION (( 'STEP AP203' ),
    '1' );
FILE_NAME ('sone3D.STEP',
    '2017-11-02T04:53:20',
    ( '' ),
    ( '' ),
    'SwSTEP 2.0',
    'SolidWorks 2014',
    '' );
FILE_SCHEMA (( 'CONFIG_CONTROL_DESIGN' ));
ENDSEC;

DATA;
#1 = CARTESIAN_POINT ( 'NONE',  ( 12.49999999999999800, 1.499999999999999100, 500.0000000000000000 ) ) ;
#2 = PLANE ( 'NONE',  #223 ) ;
#3 = CC_DESIGN_SECURITY_CLASSIFICATION ( #23, ( #42 ) ) ;
#4 = DATE_AND_TIME ( #192, #196 ) ;
#5 = DIRECTION ( 'NONE',  ( 0.0000000000000000000, -1.000000000000000000, 0.0000000000000000000 ) ) ;
#6 = APPLICATION_CONTEXT ( 'configuration controlled 3d designs of mechanical parts and assemblies' ) ;
#7 = CC_DESIGN_APPROVAL ( #10, ( #23 ) ) ;
#8 = EDGE_LOOP ( 'NONE', ( #157, #212, #41, #59 ) ) ;
#9 = CARTESIAN_POINT ( 'NONE',  ( -12.50000000000000200, 1.499999999999999100, 500.0000000000000000 ) ) ;
#10 = APPROVAL ( #165, 'UNSPECIFIED' ) ;
#11 = CC_DESIGN_DATE_AND_TIME_ASSIGNMENT ( #210, #38, ( #23 ) ) ;
#12 = VECTOR ( 'NONE', #92, 1000.000000000000000 ) ;
#13 = CARTESIAN_POINT ( 'NONE',  ( 12.49999999999999800, -1.500000000000000900, -500.0000000000000000 ) ) ;
#14 = VERTEX_POINT ( 'NONE', #51 ) ;
#15 = ADVANCED_FACE ( 'NONE', ( #104 ), #2, .F. ) ;
#16 = CC_DESIGN_PERSON_AND_ORGANIZATION_ASSIGNMENT ( #70, #152, ( #23 ) ) ;
#17 = SECURITY_CLASSIFICATION_LEVEL ( 'unclassified' ) ;
#18 = ORIENTED_EDGE ( 'NONE', *, *, #159, .T. ) ;
#19 = DIRECTION ( 'NONE',  ( 0.0000000000000000000, 0.0000000000000000000, 1.000000000000000000 ) ) ;
#20 = PERSON_AND_ORGANIZATION ( #130, #72 ) ;
#21 = ORIENTED_EDGE ( 'NONE', *, *, #167, .T. ) ;
#22 = VECTOR ( 'NONE', #5, 1000.000000000000000 ) ;
#23 = SECURITY_CLASSIFICATION ( '', '', #17 ) ;
#24 =( LENGTH_UNIT ( ) NAMED_UNIT ( * ) SI_UNIT ( .MILLI., .METRE. ) );
#25 = CC_DESIGN_PERSON_AND_ORGANIZATION_ASSIGNMENT ( #218, #131, ( #42 ) ) ;
#26 = LOCAL_TIME ( 13, 53, 20.00000000000000000, #171 ) ;
#27 = CC_DESIGN_PERSON_AND_ORGANIZATION_ASSIGNMENT ( #77, #237, ( #42 ) ) ;
#28 = ORIENTED_EDGE ( 'NONE', *, *, #197, .F. ) ;
#29 = DIRECTION ( 'NONE',  ( -0.0000000000000000000, 0.0000000000000000000, -1.000000000000000000 ) ) ;
#30 = DIRECTION ( 'NONE',  ( 0.0000000000000000000, -1.000000000000000000, 0.0000000000000000000 ) ) ;
#31 = CARTESIAN_POINT ( 'NONE',  ( 12.49999999999999800, -1.500000000000000900, 500.0000000000000000 ) ) ;
#32 = ADVANCED_FACE ( 'NONE', ( #45 ), #231, .F. ) ;
#33 = ORIENTED_EDGE ( 'NONE', *, *, #128, .T. ) ;
#34 = VECTOR ( 'NONE', #80, 1000.000000000000000 ) ;
#35 = CC_DESIGN_APPROVAL ( #37, ( #42 ) ) ;
#36 = DESIGN_CONTEXT ( 'detailed design', #6, 'design' ) ;
#37 = APPROVAL ( #215, 'UNSPECIFIED' ) ;
#38 = DATE_TIME_ROLE ( 'classification_date' ) ;
#39 = ORIENTED_EDGE ( 'NONE', *, *, #128, .F. ) ;
#40 = APPROVAL_PERSON_ORGANIZATION ( #219, #37, #113 ) ;
#41 = ORIENTED_EDGE ( 'NONE', *, *, #167, .F. ) ;
#42 = PRODUCT_DEFINITION_FORMATION_WITH_SPECIFIED_SOURCE ( 'ANY', '', #222, .NOT_KNOWN. ) ;
#43 = LOCAL_TIME ( 13, 53, 20.00000000000000000, #91 ) ;
#44 =( NAMED_UNIT ( * ) SI_UNIT ( $, .STERADIAN. ) SOLID_ANGLE_UNIT ( ) );
#45 = FACE_OUTER_BOUND ( 'NONE', #109, .T. ) ;
#46 = VECTOR ( 'NONE', #69, 1000.000000000000000 ) ;
#47 = CC_DESIGN_DATE_AND_TIME_ASSIGNMENT ( #84, #93, ( #73 ) ) ;
#48 = COORDINATED_UNIVERSAL_TIME_OFFSET ( 9, 0, .AHEAD. ) ;
#49 = CARTESIAN_POINT ( 'NONE',  ( -12.50000000000000200, -1.500000000000000900, -500.0000000000000000 ) ) ;
#50 = EDGE_CURVE ( 'NONE', #14, #225, #233, .T. ) ;
#51 = CARTESIAN_POINT ( 'NONE',  ( -12.50000000000000200, -1.500000000000000900, 500.0000000000000000 ) ) ;
#52 = VECTOR ( 'NONE', #236, 1000.000000000000000 ) ;
#53 = VERTEX_POINT ( 'NONE', #85 ) ;
#54 = CARTESIAN_POINT ( 'NONE',  ( -12.50000000000000200, 1.499999999999999100, -500.0000000000000000 ) ) ;
#55 =( GEOMETRIC_REPRESENTATION_CONTEXT ( 3 ) GLOBAL_UNCERTAINTY_ASSIGNED_CONTEXT ( ( #177 ) ) GLOBAL_UNIT_ASSIGNED_CONTEXT ( ( #24, #155, #44 ) ) REPRESENTATION_CONTEXT ( 'NONE', 'WORKASPACE' ) );
#56 = DIRECTION ( 'NONE',  ( -1.000000000000000000, -0.0000000000000000000, -0.0000000000000000000 ) ) ;
#57 = COORDINATED_UNIVERSAL_TIME_OFFSET ( 9, 0, .AHEAD. ) ;
#58 = APPROVAL_ROLE ( '' ) ;
#59 = ORIENTED_EDGE ( 'NONE', *, *, #183, .F. ) ;
#60 = DIRECTION ( 'NONE',  ( 0.0000000000000000000, 1.000000000000000000, 0.0000000000000000000 ) ) ;
#61 = APPLICATION_PROTOCOL_DEFINITION ( 'international standard', 'config_control_design', 1994, #81 ) ;
#62 = VECTOR ( 'NONE', #56, 1000.000000000000000 ) ;
#63 = AXIS2_PLACEMENT_3D ( 'NONE', #9, #145, #29 ) ;
#64 = ORIENTED_EDGE ( 'NONE', *, *, #146, .F. ) ;
#65 = CARTESIAN_POINT ( 'NONE',  ( -12.50000000000000200, -1.500000000000000900, -500.0000000000000000 ) ) ;
#66 = AXIS2_PLACEMENT_3D ( 'NONE', #138, #202, #101 ) ;
#67 = CARTESIAN_POINT ( 'NONE',  ( -12.50000000000000200, -1.500000000000000900, 500.0000000000000000 ) ) ;
#68 = CC_DESIGN_PERSON_AND_ORGANIZATION_ASSIGNMENT ( #141, #117, ( #222 ) ) ;
#69 = DIRECTION ( 'NONE',  ( 0.0000000000000000000, -1.000000000000000000, 0.0000000000000000000 ) ) ;
#70 = PERSON_AND_ORGANIZATION ( #130, #72 ) ;
#71 = VERTEX_POINT ( 'NONE', #96 ) ;
#72 = ORGANIZATION ( 'UNSPECIFIED', 'UNSPECIFIED', '' ) ;
#73 = PRODUCT_DEFINITION ( 'UNKNOWN', '', #42, #36 ) ;
#74 = APPROVAL_ROLE ( '' ) ;
#75 = APPROVAL ( #184, 'UNSPECIFIED' ) ;
#76 = CARTESIAN_POINT ( 'NONE',  ( -12.50000000000000200, -1.500000000000000900, 500.0000000000000000 ) ) ;
#77 = PERSON_AND_ORGANIZATION ( #130, #72 ) ;
#78 = ORIENTED_EDGE ( 'NONE', *, *, #207, .F. ) ;
#79 = CC_DESIGN_PERSON_AND_ORGANIZATION_ASSIGNMENT ( #211, #198, ( #73 ) ) ;
#80 = DIRECTION ( 'NONE',  ( -0.0000000000000000000, 1.000000000000000000, -0.0000000000000000000 ) ) ;
#81 = APPLICATION_CONTEXT ( 'configuration controlled 3d designs of mechanical parts and assemblies' ) ;
#82 = ORIENTED_EDGE ( 'NONE', *, *, #147, .T. ) ;
#83 = CC_DESIGN_APPROVAL ( #75, ( #73 ) ) ;
#84 = DATE_AND_TIME ( #235, #186 ) ;
#85 = CARTESIAN_POINT ( 'NONE',  ( -12.50000000000000200, 1.499999999999999100, -500.0000000000000000 ) ) ;
#86 = EDGE_LOOP ( 'NONE', ( #21, #39, #78, #121 ) ) ;
#87 = CARTESIAN_POINT ( 'NONE',  ( 0.0000000000000000000, 0.0000000000000000000, 500.0000000000000000 ) ) ;
#88 = VECTOR ( 'NONE', #193, 1000.000000000000000 ) ;
#89 = APPROVAL_DATE_TIME ( #126, #75 ) ;
#90 = ADVANCED_FACE ( 'NONE', ( #143 ), #209, .T. ) ;
#91 = COORDINATED_UNIVERSAL_TIME_OFFSET ( 9, 0, .AHEAD. ) ;
#92 = DIRECTION ( 'NONE',  ( -0.0000000000000000000, 1.000000000000000000, -0.0000000000000000000 ) ) ;
#93 = DATE_TIME_ROLE ( 'creation_date' ) ;
#94 = FACE_OUTER_BOUND ( 'NONE', #86, .T. ) ;
#95 = VECTOR ( 'NONE', #160, 1000.000000000000000 ) ;
#96 = CARTESIAN_POINT ( 'NONE',  ( 12.49999999999999800, 1.499999999999999100, -500.0000000000000000 ) ) ;
#97 = PLANE ( 'NONE',  #118 ) ;
#98 = APPROVAL_DATE_TIME ( #4, #10 ) ;
#99 = CARTESIAN_POINT ( 'NONE',  ( -12.50000000000000200, 1.499999999999999100, 500.0000000000000000 ) ) ;
#100 = PRODUCT_DEFINITION_SHAPE ( 'NONE', 'NONE',  #73 ) ;
#101 = DIRECTION ( 'NONE',  ( 1.000000000000000000, 0.0000000000000000000, 0.0000000000000000000 ) ) ;
#102 = ORIENTED_EDGE ( 'NONE', *, *, #170, .T. ) ;
#103 = LINE ( 'NONE', #164, #62 ) ;
#104 = FACE_OUTER_BOUND ( 'NONE', #216, .T. ) ;
#105 = DIRECTION ( 'NONE',  ( 1.000000000000000000, 0.0000000000000000000, 0.0000000000000000000 ) ) ;
#106 = AXIS2_PLACEMENT_3D ( 'NONE', #1, #133, #19 ) ;
#107 = CARTESIAN_POINT ( 'NONE',  ( 12.49999999999999800, 1.499999999999999100, 500.0000000000000000 ) ) ;
#108 = LINE ( 'NONE', #65, #156 ) ;
#109 = EDGE_LOOP ( 'NONE', ( #102, #127, #135, #33 ) ) ;
#110 = AXIS2_PLACEMENT_3D ( 'NONE', #87, #229, #124 ) ;
#111 = ADVANCED_FACE ( 'NONE', ( #94 ), #115, .F. ) ;
#112 = CARTESIAN_POINT ( 'NONE',  ( 12.49999999999999800, 1.499999999999999100, -500.0000000000000000 ) ) ;
#113 = APPROVAL_ROLE ( '' ) ;
#114 = ORIENTED_EDGE ( 'NONE', *, *, #197, .T. ) ;
#115 = PLANE ( 'NONE',  #106 ) ;
#116 = CARTESIAN_POINT ( 'NONE',  ( -12.50000000000000200, -1.500000000000000900, 500.0000000000000000 ) ) ;
#117 = PERSON_AND_ORGANIZATION_ROLE ( 'design_owner' ) ;
#118 = AXIS2_PLACEMENT_3D ( 'NONE', #224, #228, #172 ) ;
#119 = APPROVAL_DATE_TIME ( #205, #37 ) ;
#120 = PLANE ( 'NONE',  #63 ) ;
#121 = ORIENTED_EDGE ( 'NONE', *, *, #146, .T. ) ;
#122 = SHAPE_DEFINITION_REPRESENTATION ( #100, #137 ) ;
#123 = AXIS2_PLACEMENT_3D ( 'NONE', #208, #30, #161 ) ;
#124 = DIRECTION ( 'NONE',  ( 1.000000000000000000, 0.0000000000000000000, 0.0000000000000000000 ) ) ;
#125 = CALENDAR_DATE ( 2017, 2, 11 ) ;
#126 = DATE_AND_TIME ( #148, #43 ) ;
#127 = ORIENTED_EDGE ( 'NONE', *, *, #203, .F. ) ;
#128 = EDGE_CURVE ( 'NONE', #227, #71, #185, .T. ) ;
#129 = CARTESIAN_POINT ( 'NONE',  ( -12.50000000000000200, 1.499999999999999100, -500.0000000000000000 ) ) ;
#130 = PERSON ( 'UNSPECIFIED', 'UNSPECIFIED', 'UNSPECIFIED', ('UNSPECIFIED'), ('UNSPECIFIED'), ('UNSPECIFIED') ) ;
#131 = PERSON_AND_ORGANIZATION_ROLE ( 'design_supplier' ) ;
#132 = EDGE_LOOP ( 'NONE', ( #140, #114, #174, #82 ) ) ;
#133 = DIRECTION ( 'NONE',  ( -1.000000000000000000, 0.0000000000000000000, 0.0000000000000000000 ) ) ;
#134 = CALENDAR_DATE ( 2017, 2, 11 ) ;
#135 = ORIENTED_EDGE ( 'NONE', *, *, #147, .F. ) ;
#136 = LINE ( 'NONE', #107, #34 ) ;
#137 = ADVANCED_BREP_SHAPE_REPRESENTATION ( 'sone3D', ( #213, #66 ), #55 ) ;
#138 = CARTESIAN_POINT ( 'NONE',  ( 0.0000000000000000000, 0.0000000000000000000, 0.0000000000000000000 ) ) ;
#139 = PRODUCT_RELATED_PRODUCT_CATEGORY ( 'detail', '', ( #222 ) ) ;
#140 = ORIENTED_EDGE ( 'NONE', *, *, #232, .T. ) ;
#141 = PERSON_AND_ORGANIZATION ( #130, #72 ) ;
#142 = APPLICATION_PROTOCOL_DEFINITION ( 'international standard', 'config_control_design', 1994, #6 ) ;
#143 = FACE_OUTER_BOUND ( 'NONE', #132, .T. ) ;
#144 = COORDINATED_UNIVERSAL_TIME_OFFSET ( 9, 0, .AHEAD. ) ;
#145 = DIRECTION ( 'NONE',  ( 1.000000000000000000, 0.0000000000000000000, -0.0000000000000000000 ) ) ;
#146 = EDGE_CURVE ( 'NONE', #206, #194, #188, .T. ) ;
#147 = EDGE_CURVE ( 'NONE', #227, #163, #103, .T. ) ;
#148 = CALENDAR_DATE ( 2017, 2, 11 ) ;
#149 = VECTOR ( 'NONE', #217, 1000.000000000000000 ) ;
#150 = FACE_OUTER_BOUND ( 'NONE', #168, .T. ) ;
#151 = APPROVAL_PERSON_ORGANIZATION ( #20, #10, #58 ) ;
#152 = PERSON_AND_ORGANIZATION_ROLE ( 'classification_officer' ) ;
#153 = LINE ( 'NONE', #129, #95 ) ;
#154 = CARTESIAN_POINT ( 'NONE',  ( 12.49999999999999800, 1.499999999999999100, 500.0000000000000000 ) ) ;
#155 =( NAMED_UNIT ( * ) PLANE_ANGLE_UNIT ( ) SI_UNIT ( $, .RADIAN. ) );
#156 = VECTOR ( 'NONE', #105, 1000.000000000000000 ) ;
#157 = ORIENTED_EDGE ( 'NONE', *, *, #159, .F. ) ;
#158 = CARTESIAN_POINT ( 'NONE',  ( -12.50000000000000200, 1.499999999999999100, 500.0000000000000000 ) ) ;
#159 = EDGE_CURVE ( 'NONE', #53, #225, #234, .T. ) ;
#160 = DIRECTION ( 'NONE',  ( -1.000000000000000000, -0.0000000000000000000, -0.0000000000000000000 ) ) ;
#161 = DIRECTION ( 'NONE',  ( 0.0000000000000000000, -0.0000000000000000000, -1.000000000000000000 ) ) ;
#162 = CARTESIAN_POINT ( 'NONE',  ( -12.50000000000000200, 1.499999999999999100, 500.0000000000000000 ) ) ;
#163 = VERTEX_POINT ( 'NONE', #162 ) ;
#164 = CARTESIAN_POINT ( 'NONE',  ( -12.50000000000000200, 1.499999999999999100, 500.0000000000000000 ) ) ;
#165 = APPROVAL_STATUS ( 'not_yet_approved' ) ;
#166 = DIRECTION ( 'NONE',  ( 0.0000000000000000000, -0.0000000000000000000, 1.000000000000000000 ) ) ;
#167 = EDGE_CURVE ( 'NONE', #194, #71, #189, .T. ) ;
#168 = EDGE_LOOP ( 'NONE', ( #18, #180, #230, #220 ) ) ;
#169 = LINE ( 'NONE', #67, #181 ) ;
#170 = EDGE_CURVE ( 'NONE', #71, #53, #153, .T. ) ;
#171 = COORDINATED_UNIVERSAL_TIME_OFFSET ( 9, 0, .AHEAD. ) ;
#172 = DIRECTION ( 'NONE',  ( 1.000000000000000000, 0.0000000000000000000, 0.0000000000000000000 ) ) ;
#173 = LOCAL_TIME ( 13, 53, 20.00000000000000000, #48 ) ;
#174 = ORIENTED_EDGE ( 'NONE', *, *, #207, .T. ) ;
#175 = CARTESIAN_POINT ( 'NONE',  ( 12.49999999999999800, -1.500000000000000900, 500.0000000000000000 ) ) ;
#176 = VECTOR ( 'NONE', #204, 1000.000000000000000 ) ;
#177 = UNCERTAINTY_MEASURE_WITH_UNIT (LENGTH_MEASURE( 1.000000000000000100E-005 ), #24, 'distance_accuracy_value', 'NONE');
#178 = ORIENTED_EDGE ( 'NONE', *, *, #183, .T. ) ;
#179 = ADVANCED_FACE ( 'NONE', ( #199 ), #97, .F. ) ;
#180 = ORIENTED_EDGE ( 'NONE', *, *, #50, .F. ) ;
#181 = VECTOR ( 'NONE', #191, 1000.000000000000000 ) ;
#182 = APPROVAL_PERSON_ORGANIZATION ( #187, #75, #74 ) ;
#183 = EDGE_CURVE ( 'NONE', #225, #194, #108, .T. ) ;
#184 = APPROVAL_STATUS ( 'not_yet_approved' ) ;
#185 = LINE ( 'NONE', #154, #149 ) ;
#186 = LOCAL_TIME ( 13, 53, 20.00000000000000000, #144 ) ;
#187 = PERSON_AND_ORGANIZATION ( #130, #72 ) ;
#188 = LINE ( 'NONE', #31, #52 ) ;
#189 = LINE ( 'NONE', #112, #12 ) ;
#190 = CLOSED_SHELL ( 'NONE', ( #195, #15, #111, #32, #90, #179 ) ) ;
#191 = DIRECTION ( 'NONE',  ( 1.000000000000000000, 0.0000000000000000000, 0.0000000000000000000 ) ) ;
#192 = CALENDAR_DATE ( 2017, 2, 11 ) ;
#193 = DIRECTION ( 'NONE',  ( -0.0000000000000000000, -0.0000000000000000000, -1.000000000000000000 ) ) ;
#194 = VERTEX_POINT ( 'NONE', #13 ) ;
#195 = ADVANCED_FACE ( 'NONE', ( #150 ), #120, .F. ) ;
#196 = LOCAL_TIME ( 13, 53, 20.00000000000000000, #57 ) ;
#197 = EDGE_CURVE ( 'NONE', #14, #206, #169, .T. ) ;
#198 = PERSON_AND_ORGANIZATION_ROLE ( 'creator' ) ;
#199 = FACE_OUTER_BOUND ( 'NONE', #8, .T. ) ;
#200 = ORIENTED_EDGE ( 'NONE', *, *, #50, .T. ) ;
#201 = CARTESIAN_POINT ( 'NONE',  ( 12.49999999999999800, 1.499999999999999100, 500.0000000000000000 ) ) ;
#202 = DIRECTION ( 'NONE',  ( 0.0000000000000000000, 0.0000000000000000000, 1.000000000000000000 ) ) ;
#203 = EDGE_CURVE ( 'NONE', #163, #53, #221, .T. ) ;
#204 = DIRECTION ( 'NONE',  ( -0.0000000000000000000, -0.0000000000000000000, -1.000000000000000000 ) ) ;
#205 = DATE_AND_TIME ( #134, #173 ) ;
#206 = VERTEX_POINT ( 'NONE', #175 ) ;
#207 = EDGE_CURVE ( 'NONE', #206, #227, #136, .T. ) ;
#208 = CARTESIAN_POINT ( 'NONE',  ( -12.50000000000000200, 1.499999999999999100, 500.0000000000000000 ) ) ;
#209 = PLANE ( 'NONE',  #110 ) ;
#210 = DATE_AND_TIME ( #125, #26 ) ;
#211 = PERSON_AND_ORGANIZATION ( #130, #72 ) ;
#212 = ORIENTED_EDGE ( 'NONE', *, *, #170, .F. ) ;
#213 = MANIFOLD_SOLID_BREP ( 'ÎÞ½ - µoµ1', #190 ) ;
#214 = LINE ( 'NONE', #99, #22 ) ;
#215 = APPROVAL_STATUS ( 'not_yet_approved' ) ;
#216 = EDGE_LOOP ( 'NONE', ( #178, #64, #28, #200 ) ) ;
#217 = DIRECTION ( 'NONE',  ( -0.0000000000000000000, -0.0000000000000000000, -1.000000000000000000 ) ) ;
#218 = PERSON_AND_ORGANIZATION ( #130, #72 ) ;
#219 = PERSON_AND_ORGANIZATION ( #130, #72 ) ;
#220 = ORIENTED_EDGE ( 'NONE', *, *, #203, .T. ) ;
#221 = LINE ( 'NONE', #158, #176 ) ;
#222 = PRODUCT ( 'sone3D', 'sone3D', '', ( #226 ) ) ;
#223 = AXIS2_PLACEMENT_3D ( 'NONE', #116, #60, #166 ) ;
#224 = CARTESIAN_POINT ( 'NONE',  ( 0.0000000000000000000, 0.0000000000000000000, -500.0000000000000000 ) ) ;
#225 = VERTEX_POINT ( 'NONE', #49 ) ;
#226 = MECHANICAL_CONTEXT ( 'NONE', #81, 'mechanical' ) ;
#227 = VERTEX_POINT ( 'NONE', #201 ) ;
#228 = DIRECTION ( 'NONE',  ( -0.0000000000000000000, 0.0000000000000000000, 1.000000000000000000 ) ) ;
#229 = DIRECTION ( 'NONE',  ( -0.0000000000000000000, 0.0000000000000000000, 1.000000000000000000 ) ) ;
#230 = ORIENTED_EDGE ( 'NONE', *, *, #232, .F. ) ;
#231 = PLANE ( 'NONE',  #123 ) ;
#232 = EDGE_CURVE ( 'NONE', #163, #14, #214, .T. ) ;
#233 = LINE ( 'NONE', #76, #88 ) ;
#234 = LINE ( 'NONE', #54, #46 ) ;
#235 = CALENDAR_DATE ( 2017, 2, 11 ) ;
#236 = DIRECTION ( 'NONE',  ( -0.0000000000000000000, -0.0000000000000000000, -1.000000000000000000 ) ) ;
#237 = PERSON_AND_ORGANIZATION_ROLE ( 'creator' ) ;
ENDSEC;
END-ISO-10303-21;
