ISO-10303-21;
HEADER;
FILE_DESCRIPTION (( 'STEP AP203' ),
    '1' );
FILE_NAME ('sone3D.STEP',
    '2017-11-02T04:53:00',
    ( '' ),
    ( '' ),
    'SwSTEP 2.0',
    'SolidWorks 2014',
    '' );
FILE_SCHEMA (( 'CONFIG_CONTROL_DESIGN' ));
ENDSEC;

DATA;
#1 = LINE ( 'NONE', #71, #145 ) ;
#2 = CC_DESIGN_SECURITY_CLASSIFICATION ( #16, ( #32 ) ) ;
#3 = PERSON_AND_ORGANIZATION ( #58, #97 ) ;
#4 = ORIENTED_EDGE ( 'NONE', *, *, #180, .T. ) ;
#5 = CC_DESIGN_APPROVAL ( #8, ( #16 ) ) ;
#6 = UNCERTAINTY_MEASURE_WITH_UNIT (LENGTH_MEASURE( 1.000000000000000100E-005 ), #110, 'distance_accuracy_value', 'NONE');
#7 = VECTOR ( 'NONE', #92, 1000.000000000000000 ) ;
#8 = APPROVAL ( #195, 'UNSPECIFIED' ) ;
#9 = ORIENTED_EDGE ( 'NONE', *, *, #55, .F. ) ;
#10 = APPROVAL_STATUS ( 'not_yet_approved' ) ;
#11 = CC_DESIGN_DATE_AND_TIME_ASSIGNMENT ( #133, #65, ( #16 ) ) ;
#12 = CC_DESIGN_PERSON_AND_ORGANIZATION_ASSIGNMENT ( #28, #168, ( #16 ) ) ;
#13 = ORIENTED_EDGE ( 'NONE', *, *, #207, .T. ) ;
#14 = CALENDAR_DATE ( 2017, 2, 11 ) ;
#15 = DIRECTION ( 'NONE',  ( 1.156482317317871300E-015, -1.000000000000000000, 0.0000000000000000000 ) ) ;
#16 = SECURITY_CLASSIFICATION ( '', '', #44 ) ;
#17 = VERTEX_POINT ( 'NONE', #52 ) ;
#18 = CC_DESIGN_PERSON_AND_ORGANIZATION_ASSIGNMENT ( #86, #156, ( #32 ) ) ;
#19 = EDGE_LOOP ( 'NONE', ( #101, #166, #73, #93 ) ) ;
#20 = CC_DESIGN_PERSON_AND_ORGANIZATION_ASSIGNMENT ( #135, #23, ( #32 ) ) ;
#21 = APPROVAL_DATE_TIME ( #75, #8 ) ;
#22 = EDGE_LOOP ( 'NONE', ( #117, #9, #114, #54 ) ) ;
#23 = PERSON_AND_ORGANIZATION_ROLE ( 'creator' ) ;
#24 = DIRECTION ( 'NONE',  ( -0.0000000000000000000, 0.0000000000000000000, 1.000000000000000000 ) ) ;
#25 = APPROVAL_PERSON_ORGANIZATION ( #82, #8, #87 ) ;
#26 = CC_DESIGN_APPROVAL ( #29, ( #32 ) ) ;
#27 = VECTOR ( 'NONE', #187, 1000.000000000000000 ) ;
#28 = PERSON_AND_ORGANIZATION ( #58, #97 ) ;
#29 = APPROVAL ( #10, 'UNSPECIFIED' ) ;
#30 = DIRECTION ( 'NONE',  ( -1.000000000000000000, -1.156482317317871300E-015, 0.0000000000000000000 ) ) ;
#31 = COORDINATED_UNIVERSAL_TIME_OFFSET ( 9, 0, .AHEAD. ) ;
#32 = PRODUCT_DEFINITION_FORMATION_WITH_SPECIFIED_SOURCE ( 'ANY', '', #165, .NOT_KNOWN. ) ;
#33 = ADVANCED_FACE ( 'NONE', ( #112 ), #177, .F. ) ;
#34 = FACE_OUTER_BOUND ( 'NONE', #62, .T. ) ;
#35 = CALENDAR_DATE ( 2017, 2, 11 ) ;
#36 = CARTESIAN_POINT ( 'NONE',  ( -10.00000000000000000, 1.499999999999998400, 500.0000000000000000 ) ) ;
#37 = CC_DESIGN_DATE_AND_TIME_ASSIGNMENT ( #43, #124, ( #74 ) ) ;
#38 = LINE ( 'NONE', #186, #140 ) ;
#39 = PERSON_AND_ORGANIZATION ( #58, #97 ) ;
#40 = DESIGN_CONTEXT ( 'detailed design', #88, 'design' ) ;
#41 = ORIENTED_EDGE ( 'NONE', *, *, #194, .T. ) ;
#42 = CARTESIAN_POINT ( 'NONE',  ( 9.999999999999996400, 1.499999999999998400, 500.0000000000000000 ) ) ;
#43 = DATE_AND_TIME ( #99, #146 ) ;
#44 = SECURITY_CLASSIFICATION_LEVEL ( 'unclassified' ) ;
#45 = AXIS2_PLACEMENT_3D ( 'NONE', #213, #171, #66 ) ;
#46 = DIRECTION ( 'NONE',  ( 0.0000000000000000000, 0.0000000000000000000, 1.000000000000000000 ) ) ;
#47 = LINE ( 'NONE', #175, #7 ) ;
#48 = DIRECTION ( 'NONE',  ( -0.0000000000000000000, -0.0000000000000000000, -1.000000000000000000 ) ) ;
#49 = APPROVAL_DATE_TIME ( #106, #76 ) ;
#50 = EDGE_LOOP ( 'NONE', ( #193, #212, #118, #205 ) ) ;
#51 =( GEOMETRIC_REPRESENTATION_CONTEXT ( 3 ) GLOBAL_UNCERTAINTY_ASSIGNED_CONTEXT ( ( #6 ) ) GLOBAL_UNIT_ASSIGNED_CONTEXT ( ( #110, #229, #128 ) ) REPRESENTATION_CONTEXT ( 'NONE', 'WORKASPACE' ) );
#52 = CARTESIAN_POINT ( 'NONE',  ( 9.999999999999996400, 1.499999999999998400, 500.0000000000000000 ) ) ;
#53 = LINE ( 'NONE', #100, #150 ) ;
#54 = ORIENTED_EDGE ( 'NONE', *, *, #202, .T. ) ;
#55 = EDGE_CURVE ( 'NONE', #17, #69, #53, .T. ) ;
#56 = DIRECTION ( 'NONE',  ( 1.000000000000000000, 0.0000000000000000000, 0.0000000000000000000 ) ) ;
#57 = AXIS2_PLACEMENT_3D ( 'NONE', #147, #30, #15 ) ;
#58 = PERSON ( 'UNSPECIFIED', 'UNSPECIFIED', 'UNSPECIFIED', ('UNSPECIFIED'), ('UNSPECIFIED'), ('UNSPECIFIED') ) ;
#59 = DIRECTION ( 'NONE',  ( 0.0000000000000000000, -0.0000000000000000000, -1.000000000000000000 ) ) ;
#60 = ADVANCED_BREP_SHAPE_REPRESENTATION ( 'sone3D', ( #199, #68 ), #51 ) ;
#61 = AXIS2_PLACEMENT_3D ( 'NONE', #36, #164, #59 ) ;
#62 = EDGE_LOOP ( 'NONE', ( #152, #217, #115, #224 ) ) ;
#63 = CARTESIAN_POINT ( 'NONE',  ( -10.00000000000000000, -1.500000000000001600, 500.0000000000000000 ) ) ;
#64 = VERTEX_POINT ( 'NONE', #159 ) ;
#65 = DATE_TIME_ROLE ( 'classification_date' ) ;
#66 = DIRECTION ( 'NONE',  ( 1.000000000000000000, 0.0000000000000000000, 0.0000000000000000000 ) ) ;
#67 = MECHANICAL_CONTEXT ( 'NONE', #158, 'mechanical' ) ;
#68 = AXIS2_PLACEMENT_3D ( 'NONE', #197, #46, #172 ) ;
#69 = VERTEX_POINT ( 'NONE', #70 ) ;
#70 = CARTESIAN_POINT ( 'NONE',  ( 9.999999999999996400, 1.499999999999998400, -500.0000000000000000 ) ) ;
#71 = CARTESIAN_POINT ( 'NONE',  ( 9.999999999999996400, 1.499999999999998400, -500.0000000000000000 ) ) ;
#72 = CC_DESIGN_PERSON_AND_ORGANIZATION_ASSIGNMENT ( #39, #198, ( #165 ) ) ;
#73 = ORIENTED_EDGE ( 'NONE', *, *, #207, .F. ) ;
#74 = PRODUCT_DEFINITION ( 'UNKNOWN', '', #32, #40 ) ;
#75 = DATE_AND_TIME ( #129, #167 ) ;
#76 = APPROVAL ( #111, 'UNSPECIFIED' ) ;
#77 = ORIENTED_EDGE ( 'NONE', *, *, #228, .T. ) ;
#78 = DIRECTION ( 'NONE',  ( -1.000000000000000000, -0.0000000000000000000, -0.0000000000000000000 ) ) ;
#79 = VECTOR ( 'NONE', #84, 1000.000000000000000 ) ;
#80 = CARTESIAN_POINT ( 'NONE',  ( -10.00000000000000000, -1.500000000000001600, -500.0000000000000000 ) ) ;
#81 = CC_DESIGN_PERSON_AND_ORGANIZATION_ASSIGNMENT ( #3, #226, ( #74 ) ) ;
#82 = PERSON_AND_ORGANIZATION ( #58, #97 ) ;
#83 = CC_DESIGN_APPROVAL ( #76, ( #74 ) ) ;
#84 = DIRECTION ( 'NONE',  ( -0.0000000000000000000, -0.0000000000000000000, -1.000000000000000000 ) ) ;
#85 = LINE ( 'NONE', #80, #27 ) ;
#86 = PERSON_AND_ORGANIZATION ( #58, #97 ) ;
#87 = APPROVAL_ROLE ( '' ) ;
#88 = APPLICATION_CONTEXT ( 'configuration controlled 3d designs of mechanical parts and assemblies' ) ;
#89 = DIRECTION ( 'NONE',  ( 1.000000000000000000, 0.0000000000000000000, -0.0000000000000000000 ) ) ;
#90 = AXIS2_PLACEMENT_3D ( 'NONE', #130, #89, #210 ) ;
#91 = LOCAL_TIME ( 13, 53, 0.0000000000000000000, #138 ) ;
#92 = DIRECTION ( 'NONE',  ( 0.0000000000000000000, -1.000000000000000000, 0.0000000000000000000 ) ) ;
#93 = ORIENTED_EDGE ( 'NONE', *, *, #189, .T. ) ;
#94 = VECTOR ( 'NONE', #222, 1000.000000000000000 ) ;
#95 = LOCAL_TIME ( 13, 53, 0.0000000000000000000, #141 ) ;
#96 = LINE ( 'NONE', #102, #183 ) ;
#97 = ORGANIZATION ( 'UNSPECIFIED', 'UNSPECIFIED', '' ) ;
#98 = ORIENTED_EDGE ( 'NONE', *, *, #202, .F. ) ;
#99 = CALENDAR_DATE ( 2017, 2, 11 ) ;
#100 = CARTESIAN_POINT ( 'NONE',  ( 9.999999999999996400, 1.499999999999998400, 500.0000000000000000 ) ) ;
#101 = ORIENTED_EDGE ( 'NONE', *, *, #127, .T. ) ;
#102 = CARTESIAN_POINT ( 'NONE',  ( -10.00000000000000000, 1.499999999999998400, -500.0000000000000000 ) ) ;
#103 = CARTESIAN_POINT ( 'NONE',  ( -10.00000000000000000, 1.499999999999998400, 500.0000000000000000 ) ) ;
#104 = FACE_OUTER_BOUND ( 'NONE', #148, .T. ) ;
#105 = VERTEX_POINT ( 'NONE', #201 ) ;
#106 = DATE_AND_TIME ( #14, #91 ) ;
#107 = VERTEX_POINT ( 'NONE', #173 ) ;
#108 = PLANE ( 'NONE',  #116 ) ;
#109 = ADVANCED_FACE ( 'NONE', ( #104 ), #215, .F. ) ;
#110 =( LENGTH_UNIT ( ) NAMED_UNIT ( * ) SI_UNIT ( .MILLI., .METRE. ) );
#111 = APPROVAL_STATUS ( 'not_yet_approved' ) ;
#112 = FACE_OUTER_BOUND ( 'NONE', #22, .T. ) ;
#113 = CARTESIAN_POINT ( 'NONE',  ( -10.00000000000000000, -1.500000000000001600, 500.0000000000000000 ) ) ;
#114 = ORIENTED_EDGE ( 'NONE', *, *, #228, .F. ) ;
#115 = ORIENTED_EDGE ( 'NONE', *, *, #162, .F. ) ;
#116 = AXIS2_PLACEMENT_3D ( 'NONE', #143, #24, #157 ) ;
#117 = ORIENTED_EDGE ( 'NONE', *, *, #139, .T. ) ;
#118 = ORIENTED_EDGE ( 'NONE', *, *, #139, .F. ) ;
#119 = DIRECTION ( 'NONE',  ( -1.000000000000000000, -0.0000000000000000000, -0.0000000000000000000 ) ) ;
#120 = CARTESIAN_POINT ( 'NONE',  ( -10.00000000000000000, -1.500000000000001600, -500.0000000000000000 ) ) ;
#121 = CARTESIAN_POINT ( 'NONE',  ( 10.00000000000000000, -1.500000000000001600, 500.0000000000000000 ) ) ;
#122 = AXIS2_PLACEMENT_3D ( 'NONE', #113, #233, #182 ) ;
#123 = CLOSED_SHELL ( 'NONE', ( #149, #109, #33, #181, #209, #230 ) ) ;
#124 = DATE_TIME_ROLE ( 'creation_date' ) ;
#125 = DIRECTION ( 'NONE',  ( 0.0000000000000000000, -1.000000000000000000, 0.0000000000000000000 ) ) ;
#126 = LINE ( 'NONE', #42, #131 ) ;
#127 = EDGE_CURVE ( 'NONE', #206, #154, #47, .T. ) ;
#128 =( NAMED_UNIT ( * ) SI_UNIT ( $, .STERADIAN. ) SOLID_ANGLE_UNIT ( ) );
#129 = CALENDAR_DATE ( 2017, 2, 11 ) ;
#130 = CARTESIAN_POINT ( 'NONE',  ( -10.00000000000000000, 1.499999999999998400, 500.0000000000000000 ) ) ;
#131 = VECTOR ( 'NONE', #170, 1000.000000000000000 ) ;
#132 = PRODUCT_RELATED_PRODUCT_CATEGORY ( 'detail', '', ( #165 ) ) ;
#133 = DATE_AND_TIME ( #174, #223 ) ;
#134 = LINE ( 'NONE', #121, #169 ) ;
#135 = PERSON_AND_ORGANIZATION ( #58, #97 ) ;
#136 = PLANE ( 'NONE',  #61 ) ;
#137 = FACE_OUTER_BOUND ( 'NONE', #50, .T. ) ;
#138 = COORDINATED_UNIVERSAL_TIME_OFFSET ( 9, 0, .AHEAD. ) ;
#139 = EDGE_CURVE ( 'NONE', #151, #69, #1, .T. ) ;
#140 = VECTOR ( 'NONE', #56, 1000.000000000000000 ) ;
#141 = COORDINATED_UNIVERSAL_TIME_OFFSET ( 9, 0, .AHEAD. ) ;
#142 = APPROVAL_ROLE ( '' ) ;
#143 = CARTESIAN_POINT ( 'NONE',  ( 0.0000000000000000000, 0.0000000000000000000, 500.0000000000000000 ) ) ;
#144 = APPLICATION_PROTOCOL_DEFINITION ( 'international standard', 'config_control_design', 1994, #158 ) ;
#145 = VECTOR ( 'NONE', #216, 1000.000000000000000 ) ;
#146 = LOCAL_TIME ( 13, 53, 0.0000000000000000000, #190 ) ;
#147 = CARTESIAN_POINT ( 'NONE',  ( 9.999999999999996400, 1.499999999999998400, 500.0000000000000000 ) ) ;
#148 = EDGE_LOOP ( 'NONE', ( #41, #98, #161, #237 ) ) ;
#149 = ADVANCED_FACE ( 'NONE', ( #200 ), #235, .F. ) ;
#150 = VECTOR ( 'NONE', #48, 1000.000000000000000 ) ;
#151 = VERTEX_POINT ( 'NONE', #160 ) ;
#152 = ORIENTED_EDGE ( 'NONE', *, *, #155, .T. ) ;
#153 = SHAPE_DEFINITION_REPRESENTATION ( #176, #60 ) ;
#154 = VERTEX_POINT ( 'NONE', #120 ) ;
#155 = EDGE_CURVE ( 'NONE', #69, #206, #96, .T. ) ;
#156 = PERSON_AND_ORGANIZATION_ROLE ( 'design_supplier' ) ;
#157 = DIRECTION ( 'NONE',  ( 1.000000000000000000, 0.0000000000000000000, 0.0000000000000000000 ) ) ;
#158 = APPLICATION_CONTEXT ( 'configuration controlled 3d designs of mechanical parts and assemblies' ) ;
#159 = CARTESIAN_POINT ( 'NONE',  ( -10.00000000000000000, -1.500000000000001600, 500.0000000000000000 ) ) ;
#160 = CARTESIAN_POINT ( 'NONE',  ( 10.00000000000000000, -1.500000000000001600, -500.0000000000000000 ) ) ;
#161 = ORIENTED_EDGE ( 'NONE', *, *, #180, .F. ) ;
#162 = EDGE_CURVE ( 'NONE', #17, #105, #232, .T. ) ;
#163 = VECTOR ( 'NONE', #125, 1000.000000000000000 ) ;
#164 = DIRECTION ( 'NONE',  ( 0.0000000000000000000, -1.000000000000000000, 0.0000000000000000000 ) ) ;
#165 = PRODUCT ( 'sone3D', 'sone3D', '', ( #67 ) ) ;
#166 = ORIENTED_EDGE ( 'NONE', *, *, #204, .F. ) ;
#167 = LOCAL_TIME ( 13, 53, 0.0000000000000000000, #219 ) ;
#168 = PERSON_AND_ORGANIZATION_ROLE ( 'classification_officer' ) ;
#169 = VECTOR ( 'NONE', #211, 1000.000000000000000 ) ;
#170 = DIRECTION ( 'NONE',  ( -1.156482317317871300E-015, 1.000000000000000000, -0.0000000000000000000 ) ) ;
#171 = DIRECTION ( 'NONE',  ( -0.0000000000000000000, 0.0000000000000000000, 1.000000000000000000 ) ) ;
#172 = DIRECTION ( 'NONE',  ( 1.000000000000000000, 0.0000000000000000000, 0.0000000000000000000 ) ) ;
#173 = CARTESIAN_POINT ( 'NONE',  ( 10.00000000000000000, -1.500000000000001600, 500.0000000000000000 ) ) ;
#174 = CALENDAR_DATE ( 2017, 2, 11 ) ;
#175 = CARTESIAN_POINT ( 'NONE',  ( -10.00000000000000000, 1.499999999999998400, -500.0000000000000000 ) ) ;
#176 = PRODUCT_DEFINITION_SHAPE ( 'NONE', 'NONE',  #74 ) ;
#177 = PLANE ( 'NONE',  #57 ) ;
#178 = LINE ( 'NONE', #103, #94 ) ;
#179 = APPROVAL_DATE_TIME ( #227, #29 ) ;
#180 = EDGE_CURVE ( 'NONE', #64, #107, #38, .T. ) ;
#181 = ADVANCED_FACE ( 'NONE', ( #34 ), #136, .F. ) ;
#182 = DIRECTION ( 'NONE',  ( 0.0000000000000000000, -0.0000000000000000000, 1.000000000000000000 ) ) ;
#183 = VECTOR ( 'NONE', #78, 1000.000000000000000 ) ;
#184 = APPROVAL_PERSON_ORGANIZATION ( #234, #76, #231 ) ;
#185 = APPROVAL_PERSON_ORGANIZATION ( #236, #29, #142 ) ;
#186 = CARTESIAN_POINT ( 'NONE',  ( -10.00000000000000000, -1.500000000000001600, 500.0000000000000000 ) ) ;
#187 = DIRECTION ( 'NONE',  ( 1.000000000000000000, 0.0000000000000000000, 0.0000000000000000000 ) ) ;
#188 = VECTOR ( 'NONE', #119, 1000.000000000000000 ) ;
#189 = EDGE_CURVE ( 'NONE', #105, #206, #178, .T. ) ;
#190 = COORDINATED_UNIVERSAL_TIME_OFFSET ( 9, 0, .AHEAD. ) ;
#191 = CARTESIAN_POINT ( 'NONE',  ( -10.00000000000000000, 1.499999999999998400, -500.0000000000000000 ) ) ;
#192 = ORIENTED_EDGE ( 'NONE', *, *, #162, .T. ) ;
#193 = ORIENTED_EDGE ( 'NONE', *, *, #127, .F. ) ;
#194 = EDGE_CURVE ( 'NONE', #154, #151, #85, .T. ) ;
#195 = APPROVAL_STATUS ( 'not_yet_approved' ) ;
#196 = PLANE ( 'NONE',  #45 ) ;
#197 = CARTESIAN_POINT ( 'NONE',  ( 0.0000000000000000000, 0.0000000000000000000, 0.0000000000000000000 ) ) ;
#198 = PERSON_AND_ORGANIZATION_ROLE ( 'design_owner' ) ;
#199 = MANIFOLD_SOLID_BREP ( 'ÎÞ½ - µoµ1', #123 ) ;
#200 = FACE_OUTER_BOUND ( 'NONE', #19, .T. ) ;
#201 = CARTESIAN_POINT ( 'NONE',  ( -10.00000000000000000, 1.499999999999998400, 500.0000000000000000 ) ) ;
#202 = EDGE_CURVE ( 'NONE', #107, #151, #134, .T. ) ;
#203 = EDGE_LOOP ( 'NONE', ( #13, #4, #77, #192 ) ) ;
#204 = EDGE_CURVE ( 'NONE', #64, #154, #225, .T. ) ;
#205 = ORIENTED_EDGE ( 'NONE', *, *, #194, .F. ) ;
#206 = VERTEX_POINT ( 'NONE', #191 ) ;
#207 = EDGE_CURVE ( 'NONE', #105, #64, #218, .T. ) ;
#208 = CARTESIAN_POINT ( 'NONE',  ( -10.00000000000000000, 1.499999999999998400, 500.0000000000000000 ) ) ;
#209 = ADVANCED_FACE ( 'NONE', ( #220 ), #108, .T. ) ;
#210 = DIRECTION ( 'NONE',  ( -0.0000000000000000000, 0.0000000000000000000, -1.000000000000000000 ) ) ;
#211 = DIRECTION ( 'NONE',  ( -0.0000000000000000000, -0.0000000000000000000, -1.000000000000000000 ) ) ;
#212 = ORIENTED_EDGE ( 'NONE', *, *, #155, .F. ) ;
#213 = CARTESIAN_POINT ( 'NONE',  ( 0.0000000000000000000, 0.0000000000000000000, -500.0000000000000000 ) ) ;
#214 = APPLICATION_PROTOCOL_DEFINITION ( 'international standard', 'config_control_design', 1994, #88 ) ;
#215 = PLANE ( 'NONE',  #122 ) ;
#216 = DIRECTION ( 'NONE',  ( -1.156482317317871300E-015, 1.000000000000000000, -0.0000000000000000000 ) ) ;
#217 = ORIENTED_EDGE ( 'NONE', *, *, #189, .F. ) ;
#218 = LINE ( 'NONE', #221, #163 ) ;
#219 = COORDINATED_UNIVERSAL_TIME_OFFSET ( 9, 0, .AHEAD. ) ;
#220 = FACE_OUTER_BOUND ( 'NONE', #203, .T. ) ;
#221 = CARTESIAN_POINT ( 'NONE',  ( -10.00000000000000000, 1.499999999999998400, 500.0000000000000000 ) ) ;
#222 = DIRECTION ( 'NONE',  ( -0.0000000000000000000, -0.0000000000000000000, -1.000000000000000000 ) ) ;
#223 = LOCAL_TIME ( 13, 53, 0.0000000000000000000, #31 ) ;
#224 = ORIENTED_EDGE ( 'NONE', *, *, #55, .T. ) ;
#225 = LINE ( 'NONE', #63, #79 ) ;
#226 = PERSON_AND_ORGANIZATION_ROLE ( 'creator' ) ;
#227 = DATE_AND_TIME ( #35, #95 ) ;
#228 = EDGE_CURVE ( 'NONE', #107, #17, #126, .T. ) ;
#229 =( NAMED_UNIT ( * ) PLANE_ANGLE_UNIT ( ) SI_UNIT ( $, .RADIAN. ) );
#230 = ADVANCED_FACE ( 'NONE', ( #137 ), #196, .F. ) ;
#231 = APPROVAL_ROLE ( '' ) ;
#232 = LINE ( 'NONE', #208, #188 ) ;
#233 = DIRECTION ( 'NONE',  ( 0.0000000000000000000, 1.000000000000000000, 0.0000000000000000000 ) ) ;
#234 = PERSON_AND_ORGANIZATION ( #58, #97 ) ;
#235 = PLANE ( 'NONE',  #90 ) ;
#236 = PERSON_AND_ORGANIZATION ( #58, #97 ) ;
#237 = ORIENTED_EDGE ( 'NONE', *, *, #204, .T. ) ;
ENDSEC;
END-ISO-10303-21;
