ISO-10303-21;
HEADER;
FILE_DESCRIPTION (( 'STEP AP203' ),
    '1' );
FILE_NAME ('sone3D.STEP',
    '2017-11-02T04:52:49',
    ( '' ),
    ( '' ),
    'SwSTEP 2.0',
    'SolidWorks 2014',
    '' );
FILE_SCHEMA (( 'CONFIG_CONTROL_DESIGN' ));
ENDSEC;

DATA;
#1 = ADVANCED_FACE ( 'NONE', ( #160 ), #63, .T. ) ;
#2 = PERSON ( 'UNSPECIFIED', 'UNSPECIFIED', 'UNSPECIFIED', ('UNSPECIFIED'), ('UNSPECIFIED'), ('UNSPECIFIED') ) ;
#3 = CC_DESIGN_SECURITY_CLASSIFICATION ( #25, ( #46 ) ) ;
#4 = DIRECTION ( 'NONE',  ( 1.000000000000000000, 0.0000000000000000000, 0.0000000000000000000 ) ) ;
#5 = DIRECTION ( 'NONE',  ( 0.0000000000000000000, -1.000000000000000000, 0.0000000000000000000 ) ) ;
#6 = PLANE ( 'NONE',  #127 ) ;
#7 = PRODUCT_DEFINITION_SHAPE ( 'NONE', 'NONE',  #78 ) ;
#8 = EDGE_LOOP ( 'NONE', ( #146, #122, #51, #109 ) ) ;
#9 = CC_DESIGN_APPROVAL ( #12, ( #25 ) ) ;
#10 = CARTESIAN_POINT ( 'NONE',  ( 7.500000000000000900, -1.500000000000000900, -500.0000000000000000 ) ) ;
#11 = DATE_AND_TIME ( #214, #197 ) ;
#12 = APPROVAL ( #72, 'UNSPECIFIED' ) ;
#13 = CARTESIAN_POINT ( 'NONE',  ( -7.499999999999998200, 1.499999999999999100, -500.0000000000000000 ) ) ;
#14 = CC_DESIGN_DATE_AND_TIME_ASSIGNMENT ( #141, #172, ( #25 ) ) ;
#15 = LINE ( 'NONE', #35, #132 ) ;
#16 = ORIENTED_EDGE ( 'NONE', *, *, #202, .F. ) ;
#17 = APPROVAL_ROLE ( '' ) ;
#18 = ORGANIZATION ( 'UNSPECIFIED', 'UNSPECIFIED', '' ) ;
#19 = CC_DESIGN_PERSON_AND_ORGANIZATION_ASSIGNMENT ( #151, #58, ( #25 ) ) ;
#20 = VECTOR ( 'NONE', #165, 1000.000000000000000 ) ;
#21 = ADVANCED_FACE ( 'NONE', ( #112 ), #119, .F. ) ;
#22 = VECTOR ( 'NONE', #232, 1000.000000000000000 ) ;
#23 = CARTESIAN_POINT ( 'NONE',  ( -7.499999999999998200, 1.499999999999999100, 500.0000000000000000 ) ) ;
#24 = MANIFOLD_SOLID_BREP ( 'ÎÞ½ - µoµ1', #102 ) ;
#25 = SECURITY_CLASSIFICATION ( '', '', #157 ) ;
#26 = CARTESIAN_POINT ( 'NONE',  ( -7.499999999999998200, 1.499999999999999100, 500.0000000000000000 ) ) ;
#27 = CC_DESIGN_PERSON_AND_ORGANIZATION_ASSIGNMENT ( #61, #39, ( #46 ) ) ;
#28 = LOCAL_TIME ( 13, 52, 49.00000000000000000, #147 ) ;
#29 = DIRECTION ( 'NONE',  ( -0.0000000000000000000, 0.0000000000000000000, 1.000000000000000000 ) ) ;
#30 = CARTESIAN_POINT ( 'NONE',  ( 7.500000000000000900, -1.500000000000000900, 500.0000000000000000 ) ) ;
#31 = CARTESIAN_POINT ( 'NONE',  ( 7.500000000000001800, 1.499999999999999100, 500.0000000000000000 ) ) ;
#32 = LINE ( 'NONE', #26, #48 ) ;
#33 = DIRECTION ( 'NONE',  ( -0.0000000000000000000, 0.0000000000000000000, -1.000000000000000000 ) ) ;
#34 = CC_DESIGN_PERSON_AND_ORGANIZATION_ASSIGNMENT ( #139, #144, ( #46 ) ) ;
#35 = CARTESIAN_POINT ( 'NONE',  ( -7.499999999999998200, 1.499999999999999100, 500.0000000000000000 ) ) ;
#36 = DIRECTION ( 'NONE',  ( -0.0000000000000000000, -0.0000000000000000000, -1.000000000000000000 ) ) ;
#37 = APPROVAL_DATE_TIME ( #152, #44 ) ;
#38 = DIRECTION ( 'NONE',  ( 0.0000000000000000000, 0.0000000000000000000, 1.000000000000000000 ) ) ;
#39 = PERSON_AND_ORGANIZATION_ROLE ( 'design_supplier' ) ;
#40 = ORIENTED_EDGE ( 'NONE', *, *, #223, .F. ) ;
#41 = PERSON_AND_ORGANIZATION ( #2, #18 ) ;
#42 = LINE ( 'NONE', #68, #22 ) ;
#43 = CC_DESIGN_APPROVAL ( #44, ( #46 ) ) ;
#44 = APPROVAL ( #130, 'UNSPECIFIED' ) ;
#45 = ORIENTED_EDGE ( 'NONE', *, *, #236, .T. ) ;
#46 = PRODUCT_DEFINITION_FORMATION_WITH_SPECIFIED_SOURCE ( 'ANY', '', #180, .NOT_KNOWN. ) ;
#47 = DIRECTION ( 'NONE',  ( 1.000000000000000000, 0.0000000000000000000, -0.0000000000000000000 ) ) ;
#48 = VECTOR ( 'NONE', #99, 1000.000000000000000 ) ;
#49 = CARTESIAN_POINT ( 'NONE',  ( 7.500000000000001800, 1.499999999999999100, -500.0000000000000000 ) ) ;
#50 = CARTESIAN_POINT ( 'NONE',  ( -7.499999999999998200, -1.500000000000000900, -500.0000000000000000 ) ) ;
#51 = ORIENTED_EDGE ( 'NONE', *, *, #176, .F. ) ;
#52 = CC_DESIGN_DATE_AND_TIME_ASSIGNMENT ( #11, #233, ( #78 ) ) ;
#53 = CARTESIAN_POINT ( 'NONE',  ( 7.500000000000000900, -1.500000000000000900, 500.0000000000000000 ) ) ;
#54 = EDGE_CURVE ( 'NONE', #115, #196, #32, .T. ) ;
#55 = MECHANICAL_CONTEXT ( 'NONE', #143, 'mechanical' ) ;
#56 =( GEOMETRIC_REPRESENTATION_CONTEXT ( 3 ) GLOBAL_UNCERTAINTY_ASSIGNED_CONTEXT ( ( #215 ) ) GLOBAL_UNIT_ASSIGNED_CONTEXT ( ( #90, #212, #111 ) ) REPRESENTATION_CONTEXT ( 'NONE', 'WORKASPACE' ) );
#57 = VECTOR ( 'NONE', #138, 1000.000000000000000 ) ;
#58 = PERSON_AND_ORGANIZATION_ROLE ( 'classification_officer' ) ;
#59 = DATE_AND_TIME ( #77, #154 ) ;
#60 = AXIS2_PLACEMENT_3D ( 'NONE', #164, #29, #4 ) ;
#61 = PERSON_AND_ORGANIZATION ( #2, #18 ) ;
#62 = VECTOR ( 'NONE', #36, 1000.000000000000000 ) ;
#63 = PLANE ( 'NONE',  #104 ) ;
#64 = CARTESIAN_POINT ( 'NONE',  ( 0.0000000000000000000, 0.0000000000000000000, 500.0000000000000000 ) ) ;
#65 = EDGE_LOOP ( 'NONE', ( #16, #192, #207, #76 ) ) ;
#66 = AXIS2_PLACEMENT_3D ( 'NONE', #31, #222, #224 ) ;
#67 = PLANE ( 'NONE',  #118 ) ;
#68 = CARTESIAN_POINT ( 'NONE',  ( -7.499999999999998200, -1.500000000000000900, -500.0000000000000000 ) ) ;
#69 = DIRECTION ( 'NONE',  ( -1.000000000000000000, -0.0000000000000000000, -0.0000000000000000000 ) ) ;
#70 = COORDINATED_UNIVERSAL_TIME_OFFSET ( 9, 0, .AHEAD. ) ;
#71 = APPLICATION_CONTEXT ( 'configuration controlled 3d designs of mechanical parts and assemblies' ) ;
#72 = APPROVAL_STATUS ( 'not_yet_approved' ) ;
#73 = AXIS2_PLACEMENT_3D ( 'NONE', #87, #38, #155 ) ;
#74 = VECTOR ( 'NONE', #182, 1000.000000000000000 ) ;
#75 = CC_DESIGN_PERSON_AND_ORGANIZATION_ASSIGNMENT ( #174, #171, ( #180 ) ) ;
#76 = ORIENTED_EDGE ( 'NONE', *, *, #210, .F. ) ;
#77 = CALENDAR_DATE ( 2017, 2, 11 ) ;
#78 = PRODUCT_DEFINITION ( 'UNKNOWN', '', #46, #103 ) ;
#79 = VECTOR ( 'NONE', #69, 1000.000000000000000 ) ;
#80 = APPROVAL_PERSON_ORGANIZATION ( #41, #12, #194 ) ;
#81 = APPROVAL ( #91, 'UNSPECIFIED' ) ;
#82 = PERSON_AND_ORGANIZATION ( #2, #18 ) ;
#83 = ORIENTED_EDGE ( 'NONE', *, *, #136, .F. ) ;
#84 = CC_DESIGN_PERSON_AND_ORGANIZATION_ASSIGNMENT ( #183, #113, ( #78 ) ) ;
#85 = CARTESIAN_POINT ( 'NONE',  ( -7.499999999999998200, -1.500000000000000900, 500.0000000000000000 ) ) ;
#86 = DIRECTION ( 'NONE',  ( 0.0000000000000000000, -0.0000000000000000000, 1.000000000000000000 ) ) ;
#87 = CARTESIAN_POINT ( 'NONE',  ( 0.0000000000000000000, 0.0000000000000000000, 0.0000000000000000000 ) ) ;
#88 = VECTOR ( 'NONE', #228, 1000.000000000000000 ) ;
#89 = CC_DESIGN_APPROVAL ( #81, ( #78 ) ) ;
#90 =( LENGTH_UNIT ( ) NAMED_UNIT ( * ) SI_UNIT ( .MILLI., .METRE. ) );
#91 = APPROVAL_STATUS ( 'not_yet_approved' ) ;
#92 = VERTEX_POINT ( 'NONE', #10 ) ;
#93 = LINE ( 'NONE', #187, #57 ) ;
#94 = AXIS2_PLACEMENT_3D ( 'NONE', #205, #47, #33 ) ;
#95 = CALENDAR_DATE ( 2017, 2, 11 ) ;
#96 = ADVANCED_FACE ( 'NONE', ( #156 ), #221, .F. ) ;
#97 = ORIENTED_EDGE ( 'NONE', *, *, #163, .F. ) ;
#98 = EDGE_LOOP ( 'NONE', ( #219, #97, #121, #181 ) ) ;
#99 = DIRECTION ( 'NONE',  ( 0.0000000000000000000, -1.000000000000000000, 0.0000000000000000000 ) ) ;
#100 = DIRECTION ( 'NONE',  ( -0.0000000000000000000, 0.0000000000000000000, 1.000000000000000000 ) ) ;
#101 = LINE ( 'NONE', #13, #79 ) ;
#102 = CLOSED_SHELL ( 'NONE', ( #21, #159, #96, #116, #1, #177 ) ) ;
#103 = DESIGN_CONTEXT ( 'detailed design', #71, 'design' ) ;
#104 = AXIS2_PLACEMENT_3D ( 'NONE', #64, #100, #167 ) ;
#105 = APPROVAL_DATE_TIME ( #59, #81 ) ;
#106 = LINE ( 'NONE', #30, #20 ) ;
#107 = VECTOR ( 'NONE', #125, 1000.000000000000000 ) ;
#108 = PRODUCT_RELATED_PRODUCT_CATEGORY ( 'detail', '', ( #180 ) ) ;
#109 = ORIENTED_EDGE ( 'NONE', *, *, #136, .T. ) ;
#110 = CARTESIAN_POINT ( 'NONE',  ( -7.499999999999998200, 1.499999999999999100, -500.0000000000000000 ) ) ;
#111 =( NAMED_UNIT ( * ) SI_UNIT ( $, .STERADIAN. ) SOLID_ANGLE_UNIT ( ) );
#112 = FACE_OUTER_BOUND ( 'NONE', #98, .T. ) ;
#113 = PERSON_AND_ORGANIZATION_ROLE ( 'creator' ) ;
#114 = ORIENTED_EDGE ( 'NONE', *, *, #163, .T. ) ;
#115 = VERTEX_POINT ( 'NONE', #23 ) ;
#116 = ADVANCED_FACE ( 'NONE', ( #124 ), #6, .F. ) ;
#117 = ORIENTED_EDGE ( 'NONE', *, *, #176, .T. ) ;
#118 = AXIS2_PLACEMENT_3D ( 'NONE', #208, #209, #86 ) ;
#119 = PLANE ( 'NONE',  #94 ) ;
#120 = CARTESIAN_POINT ( 'NONE',  ( 7.500000000000001800, 1.499999999999999100, -500.0000000000000000 ) ) ;
#121 = ORIENTED_EDGE ( 'NONE', *, *, #54, .F. ) ;
#122 = ORIENTED_EDGE ( 'NONE', *, *, #190, .F. ) ;
#123 = CARTESIAN_POINT ( 'NONE',  ( -7.499999999999998200, -1.500000000000000900, 500.0000000000000000 ) ) ;
#124 = FACE_OUTER_BOUND ( 'NONE', #227, .T. ) ;
#125 = DIRECTION ( 'NONE',  ( 2.891205793294678300E-016, 1.000000000000000000, -0.0000000000000000000 ) ) ;
#126 = LINE ( 'NONE', #211, #62 ) ;
#127 = AXIS2_PLACEMENT_3D ( 'NONE', #199, #5, #186 ) ;
#128 = FACE_OUTER_BOUND ( 'NONE', #65, .T. ) ;
#129 = APPLICATION_PROTOCOL_DEFINITION ( 'international standard', 'config_control_design', 1994, #143 ) ;
#130 = APPROVAL_STATUS ( 'not_yet_approved' ) ;
#131 = VERTEX_POINT ( 'NONE', #50 ) ;
#132 = VECTOR ( 'NONE', #134, 1000.000000000000000 ) ;
#133 = ORIENTED_EDGE ( 'NONE', *, *, #54, .T. ) ;
#134 = DIRECTION ( 'NONE',  ( -1.000000000000000000, -0.0000000000000000000, -0.0000000000000000000 ) ) ;
#135 = APPROVAL_PERSON_ORGANIZATION ( #82, #44, #17 ) ;
#136 = EDGE_CURVE ( 'NONE', #203, #92, #106, .T. ) ;
#137 = LINE ( 'NONE', #168, #237 ) ;
#138 = DIRECTION ( 'NONE',  ( -0.0000000000000000000, -0.0000000000000000000, -1.000000000000000000 ) ) ;
#139 = PERSON_AND_ORGANIZATION ( #2, #18 ) ;
#140 = PERSON_AND_ORGANIZATION ( #2, #18 ) ;
#141 = DATE_AND_TIME ( #95, #230 ) ;
#142 = CARTESIAN_POINT ( 'NONE',  ( 7.500000000000001800, 1.499999999999999100, 500.0000000000000000 ) ) ;
#143 = APPLICATION_CONTEXT ( 'configuration controlled 3d designs of mechanical parts and assemblies' ) ;
#144 = PERSON_AND_ORGANIZATION_ROLE ( 'creator' ) ;
#145 = SHAPE_DEFINITION_REPRESENTATION ( #7, #169 ) ;
#146 = ORIENTED_EDGE ( 'NONE', *, *, #195, .T. ) ;
#147 = COORDINATED_UNIVERSAL_TIME_OFFSET ( 9, 0, .AHEAD. ) ;
#148 = ORIENTED_EDGE ( 'NONE', *, *, #190, .T. ) ;
#149 = COORDINATED_UNIVERSAL_TIME_OFFSET ( 9, 0, .AHEAD. ) ;
#150 = PLANE ( 'NONE',  #60 ) ;
#151 = PERSON_AND_ORGANIZATION ( #2, #18 ) ;
#152 = DATE_AND_TIME ( #175, #179 ) ;
#153 = ORIENTED_EDGE ( 'NONE', *, *, #161, .T. ) ;
#154 = LOCAL_TIME ( 13, 52, 49.00000000000000000, #225 ) ;
#155 = DIRECTION ( 'NONE',  ( 1.000000000000000000, 0.0000000000000000000, 0.0000000000000000000 ) ) ;
#156 = FACE_OUTER_BOUND ( 'NONE', #8, .T. ) ;
#157 = SECURITY_CLASSIFICATION_LEVEL ( 'unclassified' ) ;
#158 = APPROVAL_PERSON_ORGANIZATION ( #140, #81, #213 ) ;
#159 = ADVANCED_FACE ( 'NONE', ( #188 ), #67, .F. ) ;
#160 = FACE_OUTER_BOUND ( 'NONE', #178, .T. ) ;
#161 = EDGE_CURVE ( 'NONE', #235, #115, #15, .T. ) ;
#162 = EDGE_LOOP ( 'NONE', ( #193, #83, #200, #114 ) ) ;
#163 = EDGE_CURVE ( 'NONE', #196, #131, #234, .T. ) ;
#164 = CARTESIAN_POINT ( 'NONE',  ( 0.0000000000000000000, 0.0000000000000000000, -500.0000000000000000 ) ) ;
#165 = DIRECTION ( 'NONE',  ( -0.0000000000000000000, -0.0000000000000000000, -1.000000000000000000 ) ) ;
#166 = COORDINATED_UNIVERSAL_TIME_OFFSET ( 9, 0, .AHEAD. ) ;
#167 = DIRECTION ( 'NONE',  ( 1.000000000000000000, 0.0000000000000000000, 0.0000000000000000000 ) ) ;
#168 = CARTESIAN_POINT ( 'NONE',  ( -7.499999999999998200, 1.499999999999999100, -500.0000000000000000 ) ) ;
#169 = ADVANCED_BREP_SHAPE_REPRESENTATION ( 'sone3D', ( #24, #73 ), #56 ) ;
#170 = LINE ( 'NONE', #229, #173 ) ;
#171 = PERSON_AND_ORGANIZATION_ROLE ( 'design_owner' ) ;
#172 = DATE_TIME_ROLE ( 'classification_date' ) ;
#173 = VECTOR ( 'NONE', #226, 1000.000000000000000 ) ;
#174 = PERSON_AND_ORGANIZATION ( #2, #18 ) ;
#175 = CALENDAR_DATE ( 2017, 2, 11 ) ;
#176 = EDGE_CURVE ( 'NONE', #203, #235, #217, .T. ) ;
#177 = ADVANCED_FACE ( 'NONE', ( #128 ), #150, .F. ) ;
#178 = EDGE_LOOP ( 'NONE', ( #133, #201, #117, #153 ) ) ;
#179 = LOCAL_TIME ( 13, 52, 49.00000000000000000, #70 ) ;
#180 = PRODUCT ( 'sone3D', 'sone3D', '', ( #55 ) ) ;
#181 = ORIENTED_EDGE ( 'NONE', *, *, #223, .T. ) ;
#182 = DIRECTION ( 'NONE',  ( -0.0000000000000000000, -0.0000000000000000000, -1.000000000000000000 ) ) ;
#183 = PERSON_AND_ORGANIZATION ( #2, #18 ) ;
#184 = VERTEX_POINT ( 'NONE', #49 ) ;
#185 = EDGE_CURVE ( 'NONE', #196, #203, #170, .T. ) ;
#186 = DIRECTION ( 'NONE',  ( 0.0000000000000000000, -0.0000000000000000000, -1.000000000000000000 ) ) ;
#187 = CARTESIAN_POINT ( 'NONE',  ( 7.500000000000001800, 1.499999999999999100, 500.0000000000000000 ) ) ;
#188 = FACE_OUTER_BOUND ( 'NONE', #162, .T. ) ;
#189 = DIRECTION ( 'NONE',  ( 0.0000000000000000000, -1.000000000000000000, 0.0000000000000000000 ) ) ;
#190 = EDGE_CURVE ( 'NONE', #235, #184, #93, .T. ) ;
#191 = APPLICATION_PROTOCOL_DEFINITION ( 'international standard', 'config_control_design', 1994, #71 ) ;
#192 = ORIENTED_EDGE ( 'NONE', *, *, #236, .F. ) ;
#193 = ORIENTED_EDGE ( 'NONE', *, *, #210, .T. ) ;
#194 = APPROVAL_ROLE ( '' ) ;
#195 = EDGE_CURVE ( 'NONE', #92, #184, #220, .T. ) ;
#196 = VERTEX_POINT ( 'NONE', #123 ) ;
#197 = LOCAL_TIME ( 13, 52, 49.00000000000000000, #149 ) ;
#198 = CALENDAR_DATE ( 2017, 2, 11 ) ;
#199 = CARTESIAN_POINT ( 'NONE',  ( -7.499999999999998200, 1.499999999999999100, 500.0000000000000000 ) ) ;
#200 = ORIENTED_EDGE ( 'NONE', *, *, #185, .F. ) ;
#201 = ORIENTED_EDGE ( 'NONE', *, *, #185, .T. ) ;
#202 = EDGE_CURVE ( 'NONE', #216, #131, #137, .T. ) ;
#203 = VERTEX_POINT ( 'NONE', #53 ) ;
#204 = DATE_AND_TIME ( #198, #28 ) ;
#205 = CARTESIAN_POINT ( 'NONE',  ( -7.499999999999998200, 1.499999999999999100, 500.0000000000000000 ) ) ;
#206 = CARTESIAN_POINT ( 'NONE',  ( 7.500000000000001800, 1.499999999999999100, 500.0000000000000000 ) ) ;
#207 = ORIENTED_EDGE ( 'NONE', *, *, #195, .F. ) ;
#208 = CARTESIAN_POINT ( 'NONE',  ( -7.499999999999998200, -1.500000000000000900, 500.0000000000000000 ) ) ;
#209 = DIRECTION ( 'NONE',  ( 0.0000000000000000000, 1.000000000000000000, 0.0000000000000000000 ) ) ;
#210 = EDGE_CURVE ( 'NONE', #131, #92, #42, .T. ) ;
#211 = CARTESIAN_POINT ( 'NONE',  ( -7.499999999999998200, 1.499999999999999100, 500.0000000000000000 ) ) ;
#212 =( NAMED_UNIT ( * ) PLANE_ANGLE_UNIT ( ) SI_UNIT ( $, .RADIAN. ) );
#213 = APPROVAL_ROLE ( '' ) ;
#214 = CALENDAR_DATE ( 2017, 2, 11 ) ;
#215 = UNCERTAINTY_MEASURE_WITH_UNIT (LENGTH_MEASURE( 1.000000000000000100E-005 ), #90, 'distance_accuracy_value', 'NONE');
#216 = VERTEX_POINT ( 'NONE', #110 ) ;
#217 = LINE ( 'NONE', #206, #88 ) ;
#218 = APPROVAL_DATE_TIME ( #204, #12 ) ;
#219 = ORIENTED_EDGE ( 'NONE', *, *, #202, .T. ) ;
#220 = LINE ( 'NONE', #120, #107 ) ;
#221 = PLANE ( 'NONE',  #66 ) ;
#222 = DIRECTION ( 'NONE',  ( -1.000000000000000000, 2.891205793294678300E-016, 0.0000000000000000000 ) ) ;
#223 = EDGE_CURVE ( 'NONE', #115, #216, #126, .T. ) ;
#224 = DIRECTION ( 'NONE',  ( -2.891205793294678300E-016, -1.000000000000000000, 0.0000000000000000000 ) ) ;
#225 = COORDINATED_UNIVERSAL_TIME_OFFSET ( 9, 0, .AHEAD. ) ;
#226 = DIRECTION ( 'NONE',  ( 1.000000000000000000, 0.0000000000000000000, 0.0000000000000000000 ) ) ;
#227 = EDGE_LOOP ( 'NONE', ( #45, #40, #231, #148 ) ) ;
#228 = DIRECTION ( 'NONE',  ( 2.891205793294678300E-016, 1.000000000000000000, -0.0000000000000000000 ) ) ;
#229 = CARTESIAN_POINT ( 'NONE',  ( -7.499999999999998200, -1.500000000000000900, 500.0000000000000000 ) ) ;
#230 = LOCAL_TIME ( 13, 52, 49.00000000000000000, #166 ) ;
#231 = ORIENTED_EDGE ( 'NONE', *, *, #161, .F. ) ;
#232 = DIRECTION ( 'NONE',  ( 1.000000000000000000, 0.0000000000000000000, 0.0000000000000000000 ) ) ;
#233 = DATE_TIME_ROLE ( 'creation_date' ) ;
#234 = LINE ( 'NONE', #85, #74 ) ;
#235 = VERTEX_POINT ( 'NONE', #142 ) ;
#236 = EDGE_CURVE ( 'NONE', #184, #216, #101, .T. ) ;
#237 = VECTOR ( 'NONE', #189, 1000.000000000000000 ) ;
ENDSEC;
END-ISO-10303-21;
