ISO-10303-21;
HEADER;
FILE_DESCRIPTION (( 'STEP AP203' ),
    '1' );
FILE_NAME ('sone3D.STEP',
    '2017-11-02T04:52:27',
    ( '' ),
    ( '' ),
    'SwSTEP 2.0',
    'SolidWorks 2014',
    '' );
FILE_SCHEMA (( 'CONFIG_CONTROL_DESIGN' ));
ENDSEC;

DATA;
#1 = PERSON_AND_ORGANIZATION ( #150, #17 ) ;
#2 = LINE ( 'NONE', #122, #185 ) ;
#3 = CC_DESIGN_SECURITY_CLASSIFICATION ( #24, ( #40 ) ) ;
#4 = DIRECTION ( 'NONE',  ( -0.0000000000000000000, 0.0000000000000000000, 1.000000000000000000 ) ) ;
#5 = ORIENTED_EDGE ( 'NONE', *, *, #96, .T. ) ;
#6 = CARTESIAN_POINT ( 'NONE',  ( -5.000000000000000000, -1.499999999999999800, -500.0000000000000000 ) ) ;
#7 = CARTESIAN_POINT ( 'NONE',  ( -5.000000000000000000, 1.500000000000000200, 500.0000000000000000 ) ) ;
#8 = CARTESIAN_POINT ( 'NONE',  ( -5.000000000000000000, 1.500000000000000200, -500.0000000000000000 ) ) ;
#9 = CARTESIAN_POINT ( 'NONE',  ( 4.999999999999999100, -1.499999999999999800, 500.0000000000000000 ) ) ;
#10 = ORIENTED_EDGE ( 'NONE', *, *, #205, .F. ) ;
#11 = CC_DESIGN_APPROVAL ( #15, ( #24 ) ) ;
#12 = DIRECTION ( 'NONE',  ( 0.0000000000000000000, 0.0000000000000000000, 1.000000000000000000 ) ) ;
#13 = PERSON_AND_ORGANIZATION_ROLE ( 'design_supplier' ) ;
#14 = EDGE_LOOP ( 'NONE', ( #154, #18, #153, #92 ) ) ;
#15 = APPROVAL ( #48, 'UNSPECIFIED' ) ;
#16 = CC_DESIGN_DATE_AND_TIME_ASSIGNMENT ( #56, #169, ( #24 ) ) ;
#17 = ORGANIZATION ( 'UNSPECIFIED', 'UNSPECIFIED', '' ) ;
#18 = ORIENTED_EDGE ( 'NONE', *, *, #215, .F. ) ;
#19 = CC_DESIGN_PERSON_AND_ORGANIZATION_ASSIGNMENT ( #29, #30, ( #24 ) ) ;
#20 = ORIENTED_EDGE ( 'NONE', *, *, #155, .T. ) ;
#21 = VECTOR ( 'NONE', #43, 1000.000000000000000 ) ;
#22 = ORIENTED_EDGE ( 'NONE', *, *, #217, .T. ) ;
#23 = DIRECTION ( 'NONE',  ( 2.891205793294678300E-016, -1.000000000000000000, 0.0000000000000000000 ) ) ;
#24 = SECURITY_CLASSIFICATION ( '', '', #151 ) ;
#25 = CARTESIAN_POINT ( 'NONE',  ( 4.999999999999998200, 1.500000000000000200, -500.0000000000000000 ) ) ;
#26 = DIRECTION ( 'NONE',  ( -0.0000000000000000000, -0.0000000000000000000, -1.000000000000000000 ) ) ;
#27 = CC_DESIGN_PERSON_AND_ORGANIZATION_ASSIGNMENT ( #1, #13, ( #40 ) ) ;
#28 = MECHANICAL_CONTEXT ( 'NONE', #128, 'mechanical' ) ;
#29 = PERSON_AND_ORGANIZATION ( #150, #17 ) ;
#30 = PERSON_AND_ORGANIZATION_ROLE ( 'classification_officer' ) ;
#31 = FACE_OUTER_BOUND ( 'NONE', #115, .T. ) ;
#32 = CC_DESIGN_PERSON_AND_ORGANIZATION_ASSIGNMENT ( #103, #129, ( #40 ) ) ;
#33 = DATE_AND_TIME ( #58, #219 ) ;
#34 = LINE ( 'NONE', #9, #221 ) ;
#35 = ORIENTED_EDGE ( 'NONE', *, *, #136, .T. ) ;
#36 = CC_DESIGN_APPROVAL ( #38, ( #40 ) ) ;
#37 = PRODUCT_DEFINITION_SHAPE ( 'NONE', 'NONE',  #79 ) ;
#38 = APPROVAL ( #111, 'UNSPECIFIED' ) ;
#39 = PERSON_AND_ORGANIZATION ( #150, #17 ) ;
#40 = PRODUCT_DEFINITION_FORMATION_WITH_SPECIFIED_SOURCE ( 'ANY', '', #123, .NOT_KNOWN. ) ;
#41 = DIRECTION ( 'NONE',  ( 0.0000000000000000000, -0.0000000000000000000, -1.000000000000000000 ) ) ;
#42 = PLANE ( 'NONE',  #120 ) ;
#43 = DIRECTION ( 'NONE',  ( -2.891205793294678300E-016, 1.000000000000000000, -0.0000000000000000000 ) ) ;
#44 = CC_DESIGN_DATE_AND_TIME_ASSIGNMENT ( #237, #216, ( #79 ) ) ;
#45 = ORIENTED_EDGE ( 'NONE', *, *, #217, .F. ) ;
#46 = ADVANCED_FACE ( 'NONE', ( #104 ), #224, .F. ) ;
#47 = APPLICATION_CONTEXT ( 'configuration controlled 3d designs of mechanical parts and assemblies' ) ;
#48 = APPROVAL_STATUS ( 'not_yet_approved' ) ;
#49 = APPROVAL_DATE_TIME ( #112, #38 ) ;
#50 = ADVANCED_FACE ( 'NONE', ( #119 ), #175, .F. ) ;
#51 = EDGE_LOOP ( 'NONE', ( #5, #223, #65, #68 ) ) ;
#52 = AXIS2_PLACEMENT_3D ( 'NONE', #86, #106, #230 ) ;
#53 = PERSON_AND_ORGANIZATION ( #150, #17 ) ;
#54 = VECTOR ( 'NONE', #125, 1000.000000000000000 ) ;
#55 = PRODUCT_RELATED_PRODUCT_CATEGORY ( 'detail', '', ( #123 ) ) ;
#56 = DATE_AND_TIME ( #138, #84 ) ;
#57 = VECTOR ( 'NONE', #212, 1000.000000000000000 ) ;
#58 = CALENDAR_DATE ( 2017, 2, 11 ) ;
#59 = ADVANCED_FACE ( 'NONE', ( #214 ), #121, .F. ) ;
#60 = CLOSED_SHELL ( 'NONE', ( #50, #63, #59, #46, #207, #70 ) ) ;
#61 =( GEOMETRIC_REPRESENTATION_CONTEXT ( 3 ) GLOBAL_UNCERTAINTY_ASSIGNED_CONTEXT ( ( #200 ) ) GLOBAL_UNIT_ASSIGNED_CONTEXT ( ( #69, #197, #88 ) ) REPRESENTATION_CONTEXT ( 'NONE', 'WORKASPACE' ) );
#62 = CARTESIAN_POINT ( 'NONE',  ( 0.0000000000000000000, 0.0000000000000000000, -500.0000000000000000 ) ) ;
#63 = ADVANCED_FACE ( 'NONE', ( #140 ), #101, .F. ) ;
#64 = CARTESIAN_POINT ( 'NONE',  ( -5.000000000000000000, 1.500000000000000200, 500.0000000000000000 ) ) ;
#65 = ORIENTED_EDGE ( 'NONE', *, *, #139, .F. ) ;
#66 = DIRECTION ( 'NONE',  ( 1.000000000000000000, 0.0000000000000000000, 0.0000000000000000000 ) ) ;
#67 = CARTESIAN_POINT ( 'NONE',  ( -5.000000000000000000, 1.500000000000000200, -500.0000000000000000 ) ) ;
#68 = ORIENTED_EDGE ( 'NONE', *, *, #215, .T. ) ;
#69 =( LENGTH_UNIT ( ) NAMED_UNIT ( * ) SI_UNIT ( .MILLI., .METRE. ) );
#70 = ADVANCED_FACE ( 'NONE', ( #31 ), #42, .F. ) ;
#71 = APPROVAL_STATUS ( 'not_yet_approved' ) ;
#72 = AXIS2_PLACEMENT_3D ( 'NONE', #211, #80, #188 ) ;
#73 = VERTEX_POINT ( 'NONE', #161 ) ;
#74 = LINE ( 'NONE', #25, #21 ) ;
#75 = AXIS2_PLACEMENT_3D ( 'NONE', #195, #12, #149 ) ;
#76 = ORIENTED_EDGE ( 'NONE', *, *, #226, .F. ) ;
#77 = CC_DESIGN_PERSON_AND_ORGANIZATION_ASSIGNMENT ( #228, #168, ( #123 ) ) ;
#78 = ORIENTED_EDGE ( 'NONE', *, *, #187, .F. ) ;
#79 = PRODUCT_DEFINITION ( 'UNKNOWN', '', #40, #178 ) ;
#80 = DIRECTION ( 'NONE',  ( 0.0000000000000000000, 1.000000000000000000, 0.0000000000000000000 ) ) ;
#81 = APPROVAL_PERSON_ORGANIZATION ( #53, #38, #234 ) ;
#82 = VECTOR ( 'NONE', #85, 1000.000000000000000 ) ;
#83 = APPROVAL ( #71, 'UNSPECIFIED' ) ;
#84 = LOCAL_TIME ( 13, 52, 27.00000000000000000, #114 ) ;
#85 = DIRECTION ( 'NONE',  ( -1.000000000000000000, -0.0000000000000000000, -0.0000000000000000000 ) ) ;
#86 = CARTESIAN_POINT ( 'NONE',  ( 0.0000000000000000000, 0.0000000000000000000, 500.0000000000000000 ) ) ;
#87 = DIRECTION ( 'NONE',  ( -1.000000000000000000, -0.0000000000000000000, -0.0000000000000000000 ) ) ;
#88 =( NAMED_UNIT ( * ) SI_UNIT ( $, .STERADIAN. ) SOLID_ANGLE_UNIT ( ) );
#89 = APPROVAL_DATE_TIME ( #33, #15 ) ;
#90 = CC_DESIGN_PERSON_AND_ORGANIZATION_ASSIGNMENT ( #183, #91, ( #79 ) ) ;
#91 = PERSON_AND_ORGANIZATION_ROLE ( 'creator' ) ;
#92 = ORIENTED_EDGE ( 'NONE', *, *, #187, .T. ) ;
#93 = VECTOR ( 'NONE', #127, 1000.000000000000000 ) ;
#94 = CC_DESIGN_APPROVAL ( #83, ( #79 ) ) ;
#95 = MANIFOLD_SOLID_BREP ( 'ÎÞ½ - µoµ1', #60 ) ;
#96 = EDGE_CURVE ( 'NONE', #99, #118, #198, .T. ) ;
#97 = COORDINATED_UNIVERSAL_TIME_OFFSET ( 9, 0, .AHEAD. ) ;
#98 = VERTEX_POINT ( 'NONE', #227 ) ;
#99 = VERTEX_POINT ( 'NONE', #6 ) ;
#100 = AXIS2_PLACEMENT_3D ( 'NONE', #190, #142, #23 ) ;
#101 = PLANE ( 'NONE',  #72 ) ;
#102 = DIRECTION ( 'NONE',  ( 1.000000000000000000, 0.0000000000000000000, -0.0000000000000000000 ) ) ;
#103 = PERSON_AND_ORGANIZATION ( #150, #17 ) ;
#104 = FACE_OUTER_BOUND ( 'NONE', #218, .T. ) ;
#105 = CARTESIAN_POINT ( 'NONE',  ( -5.000000000000000000, -1.499999999999999800, -500.0000000000000000 ) ) ;
#106 = DIRECTION ( 'NONE',  ( -0.0000000000000000000, 0.0000000000000000000, 1.000000000000000000 ) ) ;
#107 = CALENDAR_DATE ( 2017, 2, 11 ) ;
#108 = CARTESIAN_POINT ( 'NONE',  ( 4.999999999999998200, 1.500000000000000200, 500.0000000000000000 ) ) ;
#109 = VECTOR ( 'NONE', #179, 1000.000000000000000 ) ;
#110 = APPLICATION_PROTOCOL_DEFINITION ( 'international standard', 'config_control_design', 1994, #128 ) ;
#111 = APPROVAL_STATUS ( 'not_yet_approved' ) ;
#112 = DATE_AND_TIME ( #184, #137 ) ;
#113 = LINE ( 'NONE', #193, #233 ) ;
#114 = COORDINATED_UNIVERSAL_TIME_OFFSET ( 9, 0, .AHEAD. ) ;
#115 = EDGE_LOOP ( 'NONE', ( #133, #45, #222, #181 ) ) ;
#116 = LINE ( 'NONE', #176, #82 ) ;
#117 = LINE ( 'NONE', #108, #93 ) ;
#118 = VERTEX_POINT ( 'NONE', #144 ) ;
#119 = FACE_OUTER_BOUND ( 'NONE', #14, .T. ) ;
#120 = AXIS2_PLACEMENT_3D ( 'NONE', #62, #4, #66 ) ;
#121 = PLANE ( 'NONE',  #100 ) ;
#122 = CARTESIAN_POINT ( 'NONE',  ( -5.000000000000000000, -1.499999999999999800, 500.0000000000000000 ) ) ;
#123 = PRODUCT ( 'sone3D', 'sone3D', '', ( #28 ) ) ;
#124 = CARTESIAN_POINT ( 'NONE',  ( 4.999999999999998200, 1.500000000000000200, 500.0000000000000000 ) ) ;
#125 = DIRECTION ( 'NONE',  ( 0.0000000000000000000, -1.000000000000000000, 0.0000000000000000000 ) ) ;
#126 = VECTOR ( 'NONE', #26, 1000.000000000000000 ) ;
#127 = DIRECTION ( 'NONE',  ( -2.891205793294678300E-016, 1.000000000000000000, -0.0000000000000000000 ) ) ;
#128 = APPLICATION_CONTEXT ( 'configuration controlled 3d designs of mechanical parts and assemblies' ) ;
#129 = PERSON_AND_ORGANIZATION_ROLE ( 'creator' ) ;
#130 = ORIENTED_EDGE ( 'NONE', *, *, #145, .T. ) ;
#131 = VECTOR ( 'NONE', #87, 1000.000000000000000 ) ;
#132 = AXIS2_PLACEMENT_3D ( 'NONE', #189, #102, #225 ) ;
#133 = ORIENTED_EDGE ( 'NONE', *, *, #213, .F. ) ;
#134 = DATE_AND_TIME ( #107, #152 ) ;
#135 = LINE ( 'NONE', #165, #109 ) ;
#136 = EDGE_CURVE ( 'NONE', #118, #98, #74, .T. ) ;
#137 = LOCAL_TIME ( 13, 52, 27.00000000000000000, #164 ) ;
#138 = CALENDAR_DATE ( 2017, 2, 11 ) ;
#139 = EDGE_CURVE ( 'NONE', #220, #236, #2, .T. ) ;
#140 = FACE_OUTER_BOUND ( 'NONE', #51, .T. ) ;
#141 = DIRECTION ( 'NONE',  ( 0.0000000000000000000, -1.000000000000000000, 0.0000000000000000000 ) ) ;
#142 = DIRECTION ( 'NONE',  ( -1.000000000000000000, -2.891205793294678300E-016, 0.0000000000000000000 ) ) ;
#143 = SHAPE_DEFINITION_REPRESENTATION ( #37, #157 ) ;
#144 = CARTESIAN_POINT ( 'NONE',  ( 4.999999999999999100, -1.499999999999999800, -500.0000000000000000 ) ) ;
#145 = EDGE_CURVE ( 'NONE', #158, #229, #116, .T. ) ;
#146 = CARTESIAN_POINT ( 'NONE',  ( 4.999999999999998200, 1.500000000000000200, 500.0000000000000000 ) ) ;
#147 = CARTESIAN_POINT ( 'NONE',  ( -5.000000000000000000, -1.499999999999999800, 500.0000000000000000 ) ) ;
#148 = CARTESIAN_POINT ( 'NONE',  ( 4.999999999999999100, -1.499999999999999800, 500.0000000000000000 ) ) ;
#149 = DIRECTION ( 'NONE',  ( 1.000000000000000000, 0.0000000000000000000, 0.0000000000000000000 ) ) ;
#150 = PERSON ( 'UNSPECIFIED', 'UNSPECIFIED', 'UNSPECIFIED', ('UNSPECIFIED'), ('UNSPECIFIED'), ('UNSPECIFIED') ) ;
#151 = SECURITY_CLASSIFICATION_LEVEL ( 'unclassified' ) ;
#152 = LOCAL_TIME ( 13, 52, 27.00000000000000000, #97 ) ;
#153 = ORIENTED_EDGE ( 'NONE', *, *, #155, .F. ) ;
#154 = ORIENTED_EDGE ( 'NONE', *, *, #213, .T. ) ;
#155 = EDGE_CURVE ( 'NONE', #229, #220, #113, .T. ) ;
#156 = PERSON_AND_ORGANIZATION ( #150, #17 ) ;
#157 = ADVANCED_BREP_SHAPE_REPRESENTATION ( 'sone3D', ( #95, #75 ), #61 ) ;
#158 = VERTEX_POINT ( 'NONE', #124 ) ;
#159 = LOCAL_TIME ( 13, 52, 27.00000000000000000, #232 ) ;
#160 = FACE_OUTER_BOUND ( 'NONE', #202, .T. ) ;
#161 = CARTESIAN_POINT ( 'NONE',  ( -5.000000000000000000, 1.500000000000000200, -500.0000000000000000 ) ) ;
#162 = DIRECTION ( 'NONE',  ( 0.0000000000000000000, -1.000000000000000000, 0.0000000000000000000 ) ) ;
#163 = DIRECTION ( 'NONE',  ( -0.0000000000000000000, -0.0000000000000000000, -1.000000000000000000 ) ) ;
#164 = COORDINATED_UNIVERSAL_TIME_OFFSET ( 9, 0, .AHEAD. ) ;
#165 = CARTESIAN_POINT ( 'NONE',  ( -5.000000000000000000, -1.499999999999999800, 500.0000000000000000 ) ) ;
#166 = EDGE_LOOP ( 'NONE', ( #35, #10, #76, #171 ) ) ;
#167 = DIRECTION ( 'NONE',  ( -0.0000000000000000000, -0.0000000000000000000, -1.000000000000000000 ) ) ;
#168 = PERSON_AND_ORGANIZATION_ROLE ( 'design_owner' ) ;
#169 = DATE_TIME_ROLE ( 'classification_date' ) ;
#170 = VECTOR ( 'NONE', #163, 1000.000000000000000 ) ;
#171 = ORIENTED_EDGE ( 'NONE', *, *, #235, .T. ) ;
#172 = LINE ( 'NONE', #146, #170 ) ;
#173 = LINE ( 'NONE', #8, #54 ) ;
#174 = ORIENTED_EDGE ( 'NONE', *, *, #145, .F. ) ;
#175 = PLANE ( 'NONE',  #132 ) ;
#176 = CARTESIAN_POINT ( 'NONE',  ( -5.000000000000000000, 1.500000000000000200, 500.0000000000000000 ) ) ;
#177 = DIRECTION ( 'NONE',  ( 1.000000000000000000, 0.0000000000000000000, 0.0000000000000000000 ) ) ;
#178 = DESIGN_CONTEXT ( 'detailed design', #47, 'design' ) ;
#179 = DIRECTION ( 'NONE',  ( -0.0000000000000000000, -0.0000000000000000000, -1.000000000000000000 ) ) ;
#180 = APPLICATION_PROTOCOL_DEFINITION ( 'international standard', 'config_control_design', 1994, #47 ) ;
#181 = ORIENTED_EDGE ( 'NONE', *, *, #96, .F. ) ;
#182 = APPROVAL_ROLE ( '' ) ;
#183 = PERSON_AND_ORGANIZATION ( #150, #17 ) ;
#184 = CALENDAR_DATE ( 2017, 2, 11 ) ;
#185 = VECTOR ( 'NONE', #177, 1000.000000000000000 ) ;
#186 = LINE ( 'NONE', #67, #131 ) ;
#187 = EDGE_CURVE ( 'NONE', #229, #73, #192, .T. ) ;
#188 = DIRECTION ( 'NONE',  ( 0.0000000000000000000, -0.0000000000000000000, 1.000000000000000000 ) ) ;
#189 = CARTESIAN_POINT ( 'NONE',  ( -5.000000000000000000, 1.500000000000000200, 500.0000000000000000 ) ) ;
#190 = CARTESIAN_POINT ( 'NONE',  ( 4.999999999999998200, 1.500000000000000200, 500.0000000000000000 ) ) ;
#191 = CALENDAR_DATE ( 2017, 2, 11 ) ;
#192 = LINE ( 'NONE', #7, #126 ) ;
#193 = CARTESIAN_POINT ( 'NONE',  ( -5.000000000000000000, 1.500000000000000200, 500.0000000000000000 ) ) ;
#194 = PLANE ( 'NONE',  #52 ) ;
#195 = CARTESIAN_POINT ( 'NONE',  ( 0.0000000000000000000, 0.0000000000000000000, 0.0000000000000000000 ) ) ;
#196 = COORDINATED_UNIVERSAL_TIME_OFFSET ( 9, 0, .AHEAD. ) ;
#197 =( NAMED_UNIT ( * ) PLANE_ANGLE_UNIT ( ) SI_UNIT ( $, .RADIAN. ) );
#198 = LINE ( 'NONE', #105, #57 ) ;
#199 = APPROVAL_ROLE ( '' ) ;
#200 = UNCERTAINTY_MEASURE_WITH_UNIT (LENGTH_MEASURE( 1.000000000000000100E-005 ), #69, 'distance_accuracy_value', 'NONE');
#201 = APPROVAL_PERSON_ORGANIZATION ( #156, #15, #182 ) ;
#202 = EDGE_LOOP ( 'NONE', ( #20, #210, #209, #130 ) ) ;
#203 = ORIENTED_EDGE ( 'NONE', *, *, #205, .T. ) ;
#204 = APPROVAL_PERSON_ORGANIZATION ( #39, #83, #199 ) ;
#205 = EDGE_CURVE ( 'NONE', #158, #98, #172, .T. ) ;
#206 = AXIS2_PLACEMENT_3D ( 'NONE', #64, #141, #41 ) ;
#207 = ADVANCED_FACE ( 'NONE', ( #160 ), #194, .T. ) ;
#208 = APPROVAL_DATE_TIME ( #134, #83 ) ;
#209 = ORIENTED_EDGE ( 'NONE', *, *, #226, .T. ) ;
#210 = ORIENTED_EDGE ( 'NONE', *, *, #139, .T. ) ;
#211 = CARTESIAN_POINT ( 'NONE',  ( -5.000000000000000000, -1.499999999999999800, 500.0000000000000000 ) ) ;
#212 = DIRECTION ( 'NONE',  ( 1.000000000000000000, 0.0000000000000000000, 0.0000000000000000000 ) ) ;
#213 = EDGE_CURVE ( 'NONE', #73, #99, #173, .T. ) ;
#214 = FACE_OUTER_BOUND ( 'NONE', #166, .T. ) ;
#215 = EDGE_CURVE ( 'NONE', #220, #99, #135, .T. ) ;
#216 = DATE_TIME_ROLE ( 'creation_date' ) ;
#217 = EDGE_CURVE ( 'NONE', #98, #73, #186, .T. ) ;
#218 = EDGE_LOOP ( 'NONE', ( #22, #78, #174, #203 ) ) ;
#219 = LOCAL_TIME ( 13, 52, 27.00000000000000000, #196 ) ;
#220 = VERTEX_POINT ( 'NONE', #147 ) ;
#221 = VECTOR ( 'NONE', #167, 1000.000000000000000 ) ;
#222 = ORIENTED_EDGE ( 'NONE', *, *, #136, .F. ) ;
#223 = ORIENTED_EDGE ( 'NONE', *, *, #235, .F. ) ;
#224 = PLANE ( 'NONE',  #206 ) ;
#225 = DIRECTION ( 'NONE',  ( -0.0000000000000000000, 0.0000000000000000000, -1.000000000000000000 ) ) ;
#226 = EDGE_CURVE ( 'NONE', #236, #158, #117, .T. ) ;
#227 = CARTESIAN_POINT ( 'NONE',  ( 4.999999999999998200, 1.500000000000000200, -500.0000000000000000 ) ) ;
#228 = PERSON_AND_ORGANIZATION ( #150, #17 ) ;
#229 = VERTEX_POINT ( 'NONE', #231 ) ;
#230 = DIRECTION ( 'NONE',  ( 1.000000000000000000, 0.0000000000000000000, 0.0000000000000000000 ) ) ;
#231 = CARTESIAN_POINT ( 'NONE',  ( -5.000000000000000000, 1.500000000000000200, 500.0000000000000000 ) ) ;
#232 = COORDINATED_UNIVERSAL_TIME_OFFSET ( 9, 0, .AHEAD. ) ;
#233 = VECTOR ( 'NONE', #162, 1000.000000000000000 ) ;
#234 = APPROVAL_ROLE ( '' ) ;
#235 = EDGE_CURVE ( 'NONE', #236, #118, #34, .T. ) ;
#236 = VERTEX_POINT ( 'NONE', #148 ) ;
#237 = DATE_AND_TIME ( #191, #159 ) ;
ENDSEC;
END-ISO-10303-21;
