ISO-10303-21;
HEADER;
FILE_DESCRIPTION (( 'STEP AP203' ),
    '1' );
FILE_NAME ('sone3D.STEP',
    '2017-11-02T04:52:13',
    ( '' ),
    ( '' ),
    'SwSTEP 2.0',
    'SolidWorks 2014',
    '' );
FILE_SCHEMA (( 'CONFIG_CONTROL_DESIGN' ));
ENDSEC;

DATA;
#1 = CC_DESIGN_SECURITY_CLASSIFICATION ( #26, ( #45 ) ) ;
#2 = APPROVAL_PERSON_ORGANIZATION ( #84, #83, #37 ) ;
#3 = APPROVAL_ROLE ( '' ) ;
#4 = ORIENTED_EDGE ( 'NONE', *, *, #165, .F. ) ;
#5 = ORIENTED_EDGE ( 'NONE', *, *, #165, .T. ) ;
#6 = CC_DESIGN_APPROVAL ( #9, ( #26 ) ) ;
#7 = FACE_OUTER_BOUND ( 'NONE', #53, .T. ) ;
#8 = ADVANCED_FACE ( 'NONE', ( #67 ), #143, .F. ) ;
#9 = APPROVAL ( #12, 'UNSPECIFIED' ) ;
#10 = ORIENTED_EDGE ( 'NONE', *, *, #209, .F. ) ;
#11 = CC_DESIGN_DATE_AND_TIME_ASSIGNMENT ( #171, #14, ( #26 ) ) ;
#12 = APPROVAL_STATUS ( 'not_yet_approved' ) ;
#13 = DATE_AND_TIME ( #34, #215 ) ;
#14 = DATE_TIME_ROLE ( 'classification_date' ) ;
#15 = CC_DESIGN_PERSON_AND_ORGANIZATION_ASSIGNMENT ( #72, #17, ( #26 ) ) ;
#16 = DIRECTION ( 'NONE',  ( 0.0000000000000000000, -0.0000000000000000000, -1.000000000000000000 ) ) ;
#17 = PERSON_AND_ORGANIZATION_ROLE ( 'classification_officer' ) ;
#18 = SECURITY_CLASSIFICATION_LEVEL ( 'unclassified' ) ;
#19 = ORIENTED_EDGE ( 'NONE', *, *, #134, .F. ) ;
#20 = PERSON_AND_ORGANIZATION_ROLE ( 'design_supplier' ) ;
#21 = PERSON_AND_ORGANIZATION_ROLE ( 'creator' ) ;
#22 = APPROVAL_ROLE ( '' ) ;
#23 = APPROVAL_STATUS ( 'not_yet_approved' ) ;
#24 = DATE_TIME_ROLE ( 'creation_date' ) ;
#25 = COORDINATED_UNIVERSAL_TIME_OFFSET ( 9, 0, .AHEAD. ) ;
#26 = SECURITY_CLASSIFICATION ( '', '', #18 ) ;
#27 = ORIENTED_EDGE ( 'NONE', *, *, #154, .F. ) ;
#28 = DIRECTION ( 'NONE',  ( 1.000000000000000000, 0.0000000000000000000, 0.0000000000000000000 ) ) ;
#29 = CC_DESIGN_PERSON_AND_ORGANIZATION_ASSIGNMENT ( #176, #20, ( #45 ) ) ;
#30 = VECTOR ( 'NONE', #151, 1000.000000000000000 ) ;
#31 = CC_DESIGN_PERSON_AND_ORGANIZATION_ASSIGNMENT ( #168, #21, ( #45 ) ) ;
#32 = ADVANCED_FACE ( 'NONE', ( #7 ), #218, .F. ) ;
#33 = VECTOR ( 'NONE', #60, 1000.000000000000000 ) ;
#34 = CALENDAR_DATE ( 2017, 2, 11 ) ;
#35 = VERTEX_POINT ( 'NONE', #173 ) ;
#36 = PERSON_AND_ORGANIZATION_ROLE ( 'creator' ) ;
#37 = APPROVAL_ROLE ( '' ) ;
#38 = CC_DESIGN_APPROVAL ( #41, ( #45 ) ) ;
#39 = APPROVAL_STATUS ( 'not_yet_approved' ) ;
#40 = APPLICATION_PROTOCOL_DEFINITION ( 'international standard', 'config_control_design', 1994, #48 ) ;
#41 = APPROVAL ( #23, 'UNSPECIFIED' ) ;
#42 = LINE ( 'NONE', #175, #170 ) ;
#43 = DIRECTION ( 'NONE',  ( 1.000000000000000000, 1.156482317317871500E-016, -0.0000000000000000000 ) ) ;
#44 = PLANE ( 'NONE',  #55 ) ;
#45 = PRODUCT_DEFINITION_FORMATION_WITH_SPECIFIED_SOURCE ( 'ANY', '', #158, .NOT_KNOWN. ) ;
#46 = UNCERTAINTY_MEASURE_WITH_UNIT (LENGTH_MEASURE( 1.000000000000000100E-005 ), #69, 'distance_accuracy_value', 'NONE');
#47 = LOCAL_TIME ( 13, 52, 13.00000000000000000, #224 ) ;
#48 = APPLICATION_CONTEXT ( 'configuration controlled 3d designs of mechanical parts and assemblies' ) ;
#49 = PERSON_AND_ORGANIZATION_ROLE ( 'design_owner' ) ;
#50 = MECHANICAL_CONTEXT ( 'NONE', #59, 'mechanical' ) ;
#51 = COORDINATED_UNIVERSAL_TIME_OFFSET ( 9, 0, .AHEAD. ) ;
#52 = CC_DESIGN_DATE_AND_TIME_ASSIGNMENT ( #13, #24, ( #78 ) ) ;
#53 = EDGE_LOOP ( 'NONE', ( #217, #114, #10, #104 ) ) ;
#54 = FACE_OUTER_BOUND ( 'NONE', #65, .T. ) ;
#55 = AXIS2_PLACEMENT_3D ( 'NONE', #216, #200, #194 ) ;
#56 = CLOSED_SHELL ( 'NONE', ( #167, #186, #118, #32, #98, #8 ) ) ;
#57 = AXIS2_PLACEMENT_3D ( 'NONE', #234, #227, #137 ) ;
#58 = ORIENTED_EDGE ( 'NONE', *, *, #190, .F. ) ;
#59 = APPLICATION_CONTEXT ( 'configuration controlled 3d designs of mechanical parts and assemblies' ) ;
#60 = DIRECTION ( 'NONE',  ( 1.000000000000000000, 0.0000000000000000000, 0.0000000000000000000 ) ) ;
#61 = ORIENTED_EDGE ( 'NONE', *, *, #90, .T. ) ;
#62 = LINE ( 'NONE', #161, #197 ) ;
#63 = APPLICATION_PROTOCOL_DEFINITION ( 'international standard', 'config_control_design', 1994, #59 ) ;
#64 = CARTESIAN_POINT ( 'NONE',  ( -10.00000000000000200, 7.500000000000000000, 500.0000000000000000 ) ) ;
#65 = EDGE_LOOP ( 'NONE', ( #163, #82, #61, #229 ) ) ;
#66 =( NAMED_UNIT ( * ) SI_UNIT ( $, .STERADIAN. ) SOLID_ANGLE_UNIT ( ) );
#67 = FACE_OUTER_BOUND ( 'NONE', #70, .T. ) ;
#68 =( NAMED_UNIT ( * ) PLANE_ANGLE_UNIT ( ) SI_UNIT ( $, .RADIAN. ) );
#69 =( LENGTH_UNIT ( ) NAMED_UNIT ( * ) SI_UNIT ( .MILLI., .METRE. ) );
#70 = EDGE_LOOP ( 'NONE', ( #212, #19, #136, #27 ) ) ;
#71 = AXIS2_PLACEMENT_3D ( 'NONE', #85, #79, #28 ) ;
#72 = PERSON_AND_ORGANIZATION ( #109, #188 ) ;
#73 = ORIENTED_EDGE ( 'NONE', *, *, #210, .T. ) ;
#74 = CC_DESIGN_PERSON_AND_ORGANIZATION_ASSIGNMENT ( #166, #49, ( #158 ) ) ;
#75 = LINE ( 'NONE', #141, #30 ) ;
#76 = VERTEX_POINT ( 'NONE', #214 ) ;
#77 = DIRECTION ( 'NONE',  ( -0.0000000000000000000, -0.0000000000000000000, -1.000000000000000000 ) ) ;
#78 = PRODUCT_DEFINITION ( 'UNKNOWN', '', #45, #138 ) ;
#79 = DIRECTION ( 'NONE',  ( 0.0000000000000000000, 0.0000000000000000000, 1.000000000000000000 ) ) ;
#80 = PLANE ( 'NONE',  #149 ) ;
#81 = APPROVAL_DATE_TIME ( #139, #9 ) ;
#82 = ORIENTED_EDGE ( 'NONE', *, *, #126, .T. ) ;
#83 = APPROVAL ( #39, 'UNSPECIFIED' ) ;
#84 = PERSON_AND_ORGANIZATION ( #109, #188 ) ;
#85 = CARTESIAN_POINT ( 'NONE',  ( 0.0000000000000000000, 0.0000000000000000000, 0.0000000000000000000 ) ) ;
#86 = CC_DESIGN_PERSON_AND_ORGANIZATION_ASSIGNMENT ( #198, #36, ( #78 ) ) ;
#87 = CARTESIAN_POINT ( 'NONE',  ( 9.999999999999998200, -7.500000000000000000, 500.0000000000000000 ) ) ;
#88 = CARTESIAN_POINT ( 'NONE',  ( 9.999999999999994700, 7.500000000000000000, 500.0000000000000000 ) ) ;
#89 = DIRECTION ( 'NONE',  ( 1.156482317317871500E-016, -1.000000000000000000, 0.0000000000000000000 ) ) ;
#90 = EDGE_CURVE ( 'NONE', #164, #181, #193, .T. ) ;
#91 = CARTESIAN_POINT ( 'NONE',  ( -10.00000000000000200, 7.500000000000000000, 500.0000000000000000 ) ) ;
#92 = LINE ( 'NONE', #201, #132 ) ;
#93 = ORIENTED_EDGE ( 'NONE', *, *, #154, .T. ) ;
#94 = DIRECTION ( 'NONE',  ( -0.0000000000000000000, -0.0000000000000000000, -1.000000000000000000 ) ) ;
#95 = CALENDAR_DATE ( 2017, 2, 11 ) ;
#96 = CC_DESIGN_APPROVAL ( #83, ( #78 ) ) ;
#97 = MANIFOLD_SOLID_BREP ( 'ÎÞ½ - µoµ1', #56 ) ;
#98 = ADVANCED_FACE ( 'NONE', ( #54 ), #44, .T. ) ;
#99 = AXIS2_PLACEMENT_3D ( 'NONE', #153, #192, #172 ) ;
#100 = CARTESIAN_POINT ( 'NONE',  ( -10.00000000000000200, 7.500000000000000000, -500.0000000000000000 ) ) ;
#101 = DIRECTION ( 'NONE',  ( 0.0000000000000000000, -1.000000000000000000, 0.0000000000000000000 ) ) ;
#102 = DIRECTION ( 'NONE',  ( -1.000000000000000000, -0.0000000000000000000, -0.0000000000000000000 ) ) ;
#103 = EDGE_LOOP ( 'NONE', ( #230, #236, #196, #202 ) ) ;
#104 = ORIENTED_EDGE ( 'NONE', *, *, #125, .T. ) ;
#105 = DIRECTION ( 'NONE',  ( 1.156482317317871500E-016, -1.000000000000000000, 0.0000000000000000000 ) ) ;
#106 = CARTESIAN_POINT ( 'NONE',  ( -10.00000000000000200, 7.500000000000000000, 500.0000000000000000 ) ) ;
#107 = PLANE ( 'NONE',  #57 ) ;
#108 = APPROVAL_DATE_TIME ( #113, #41 ) ;
#109 = PERSON ( 'UNSPECIFIED', 'UNSPECIFIED', 'UNSPECIFIED', ('UNSPECIFIED'), ('UNSPECIFIED'), ('UNSPECIFIED') ) ;
#110 = VERTEX_POINT ( 'NONE', #203 ) ;
#111 = CARTESIAN_POINT ( 'NONE',  ( -10.00000000000000200, 7.500000000000000000, 500.0000000000000000 ) ) ;
#112 = PRODUCT_RELATED_PRODUCT_CATEGORY ( 'detail', '', ( #158 ) ) ;
#113 = DATE_AND_TIME ( #95, #47 ) ;
#114 = ORIENTED_EDGE ( 'NONE', *, *, #210, .F. ) ;
#115 = VERTEX_POINT ( 'NONE', #204 ) ;
#116 = AXIS2_PLACEMENT_3D ( 'NONE', #174, #159, #179 ) ;
#117 =( GEOMETRIC_REPRESENTATION_CONTEXT ( 3 ) GLOBAL_UNCERTAINTY_ASSIGNED_CONTEXT ( ( #46 ) ) GLOBAL_UNIT_ASSIGNED_CONTEXT ( ( #69, #68, #66 ) ) REPRESENTATION_CONTEXT ( 'NONE', 'WORKASPACE' ) );
#118 = ADVANCED_FACE ( 'NONE', ( #183 ), #182, .F. ) ;
#119 = COORDINATED_UNIVERSAL_TIME_OFFSET ( 9, 0, .AHEAD. ) ;
#120 = VECTOR ( 'NONE', #105, 1000.000000000000000 ) ;
#121 = DIRECTION ( 'NONE',  ( -0.0000000000000000000, -0.0000000000000000000, -1.000000000000000000 ) ) ;
#122 = CALENDAR_DATE ( 2017, 2, 11 ) ;
#123 = SHAPE_DEFINITION_REPRESENTATION ( #142, #228 ) ;
#124 = CARTESIAN_POINT ( 'NONE',  ( 9.999999999999998200, -7.500000000000000000, 500.0000000000000000 ) ) ;
#125 = EDGE_CURVE ( 'NONE', #181, #206, #156, .T. ) ;
#126 = EDGE_CURVE ( 'NONE', #110, #164, #62, .T. ) ;
#127 = CARTESIAN_POINT ( 'NONE',  ( 9.999999999999994700, 7.500000000000000000, 500.0000000000000000 ) ) ;
#128 = FACE_OUTER_BOUND ( 'NONE', #213, .T. ) ;
#129 = APPROVAL_DATE_TIME ( #211, #83 ) ;
#130 = AXIS2_PLACEMENT_3D ( 'NONE', #106, #101, #16 ) ;
#131 = VECTOR ( 'NONE', #121, 1000.000000000000000 ) ;
#132 = VECTOR ( 'NONE', #77, 1000.000000000000000 ) ;
#133 = CARTESIAN_POINT ( 'NONE',  ( -10.00000000000000200, 7.500000000000000000, 500.0000000000000000 ) ) ;
#134 = EDGE_CURVE ( 'NONE', #206, #35, #42, .T. ) ;
#135 = VERTEX_POINT ( 'NONE', #221 ) ;
#136 = ORIENTED_EDGE ( 'NONE', *, *, #178, .F. ) ;
#137 = DIRECTION ( 'NONE',  ( 0.0000000000000000000, -0.0000000000000000000, 1.000000000000000000 ) ) ;
#138 = DESIGN_CONTEXT ( 'detailed design', #48, 'design' ) ;
#139 = DATE_AND_TIME ( #235, #207 ) ;
#140 = VECTOR ( 'NONE', #94, 1000.000000000000000 ) ;
#141 = CARTESIAN_POINT ( 'NONE',  ( 9.999999999999994700, 7.500000000000000000, -500.0000000000000000 ) ) ;
#142 = PRODUCT_DEFINITION_SHAPE ( 'NONE', 'NONE',  #78 ) ;
#143 = PLANE ( 'NONE',  #116 ) ;
#144 = DIRECTION ( 'NONE',  ( -1.156482317317871500E-016, 1.000000000000000000, 0.0000000000000000000 ) ) ;
#145 = LINE ( 'NONE', #91, #157 ) ;
#146 = COORDINATED_UNIVERSAL_TIME_OFFSET ( 9, 0, .AHEAD. ) ;
#147 = VECTOR ( 'NONE', #150, 1000.000000000000000 ) ;
#148 = LINE ( 'NONE', #100, #120 ) ;
#149 = AXIS2_PLACEMENT_3D ( 'NONE', #64, #43, #144 ) ;
#150 = DIRECTION ( 'NONE',  ( -0.0000000000000000000, -0.0000000000000000000, -1.000000000000000000 ) ) ;
#151 = DIRECTION ( 'NONE',  ( -2.312964634635743000E-016, 1.000000000000000000, -0.0000000000000000000 ) ) ;
#152 = VECTOR ( 'NONE', #237, 1000.000000000000000 ) ;
#153 = CARTESIAN_POINT ( 'NONE',  ( 9.999999999999994700, 7.500000000000000000, 500.0000000000000000 ) ) ;
#154 = EDGE_CURVE ( 'NONE', #76, #115, #208, .T. ) ;
#155 = CALENDAR_DATE ( 2017, 2, 11 ) ;
#156 = LINE ( 'NONE', #88, #147 ) ;
#157 = VECTOR ( 'NONE', #89, 1000.000000000000000 ) ;
#158 = PRODUCT ( 'sone3D', 'sone3D', '', ( #50 ) ) ;
#159 = DIRECTION ( 'NONE',  ( -0.0000000000000000000, 0.0000000000000000000, 1.000000000000000000 ) ) ;
#160 = CARTESIAN_POINT ( 'NONE',  ( 9.999999999999994700, 7.500000000000000000, -500.0000000000000000 ) ) ;
#161 = CARTESIAN_POINT ( 'NONE',  ( -10.00000000000000000, -7.500000000000000000, 500.0000000000000000 ) ) ;
#162 = LOCAL_TIME ( 13, 52, 13.00000000000000000, #25 ) ;
#163 = ORIENTED_EDGE ( 'NONE', *, *, #232, .T. ) ;
#164 = VERTEX_POINT ( 'NONE', #87 ) ;
#165 = EDGE_CURVE ( 'NONE', #110, #76, #92, .T. ) ;
#166 = PERSON_AND_ORGANIZATION ( #109, #188 ) ;
#167 = ADVANCED_FACE ( 'NONE', ( #187 ), #80, .F. ) ;
#168 = PERSON_AND_ORGANIZATION ( #109, #188 ) ;
#169 = LOCAL_TIME ( 13, 52, 13.00000000000000000, #146 ) ;
#170 = VECTOR ( 'NONE', #189, 1000.000000000000000 ) ;
#171 = DATE_AND_TIME ( #155, #162 ) ;
#172 = DIRECTION ( 'NONE',  ( 2.312964634635743000E-016, -1.000000000000000000, 0.0000000000000000000 ) ) ;
#173 = CARTESIAN_POINT ( 'NONE',  ( -10.00000000000000200, 7.500000000000000000, -500.0000000000000000 ) ) ;
#174 = CARTESIAN_POINT ( 'NONE',  ( 0.0000000000000000000, 0.0000000000000000000, -500.0000000000000000 ) ) ;
#175 = CARTESIAN_POINT ( 'NONE',  ( -10.00000000000000200, 7.500000000000000000, -500.0000000000000000 ) ) ;
#176 = PERSON_AND_ORGANIZATION ( #109, #188 ) ;
#177 = VECTOR ( 'NONE', #102, 1000.000000000000000 ) ;
#178 = EDGE_CURVE ( 'NONE', #115, #206, #75, .T. ) ;
#179 = DIRECTION ( 'NONE',  ( 1.000000000000000000, 0.0000000000000000000, 0.0000000000000000000 ) ) ;
#180 = ORIENTED_EDGE ( 'NONE', *, *, #126, .F. ) ;
#181 = VERTEX_POINT ( 'NONE', #127 ) ;
#182 = PLANE ( 'NONE',  #99 ) ;
#183 = FACE_OUTER_BOUND ( 'NONE', #103, .T. ) ;
#184 = PERSON_AND_ORGANIZATION ( #109, #188 ) ;
#185 = ORIENTED_EDGE ( 'NONE', *, *, #232, .F. ) ;
#186 = ADVANCED_FACE ( 'NONE', ( #128 ), #107, .F. ) ;
#187 = FACE_OUTER_BOUND ( 'NONE', #219, .T. ) ;
#188 = ORGANIZATION ( 'UNSPECIFIED', 'UNSPECIFIED', '' ) ;
#189 = DIRECTION ( 'NONE',  ( -1.000000000000000000, -0.0000000000000000000, -0.0000000000000000000 ) ) ;
#190 = EDGE_CURVE ( 'NONE', #164, #115, #223, .T. ) ;
#191 = APPROVAL_PERSON_ORGANIZATION ( #184, #41, #22 ) ;
#192 = DIRECTION ( 'NONE',  ( -1.000000000000000000, -2.312964634635743000E-016, 0.0000000000000000000 ) ) ;
#193 = LINE ( 'NONE', #205, #152 ) ;
#194 = DIRECTION ( 'NONE',  ( 1.000000000000000000, 0.0000000000000000000, 0.0000000000000000000 ) ) ;
#195 = ORIENTED_EDGE ( 'NONE', *, *, #222, .T. ) ;
#196 = ORIENTED_EDGE ( 'NONE', *, *, #90, .F. ) ;
#197 = VECTOR ( 'NONE', #231, 1000.000000000000000 ) ;
#198 = PERSON_AND_ORGANIZATION ( #109, #188 ) ;
#199 = LINE ( 'NONE', #133, #177 ) ;
#200 = DIRECTION ( 'NONE',  ( -0.0000000000000000000, 0.0000000000000000000, 1.000000000000000000 ) ) ;
#201 = CARTESIAN_POINT ( 'NONE',  ( -10.00000000000000000, -7.500000000000000000, 500.0000000000000000 ) ) ;
#202 = ORIENTED_EDGE ( 'NONE', *, *, #190, .T. ) ;
#203 = CARTESIAN_POINT ( 'NONE',  ( -10.00000000000000000, -7.500000000000000000, 500.0000000000000000 ) ) ;
#204 = CARTESIAN_POINT ( 'NONE',  ( 9.999999999999998200, -7.500000000000000000, -500.0000000000000000 ) ) ;
#205 = CARTESIAN_POINT ( 'NONE',  ( 9.999999999999994700, 7.500000000000000000, 500.0000000000000000 ) ) ;
#206 = VERTEX_POINT ( 'NONE', #160 ) ;
#207 = LOCAL_TIME ( 13, 52, 13.00000000000000000, #51 ) ;
#208 = LINE ( 'NONE', #233, #33 ) ;
#209 = EDGE_CURVE ( 'NONE', #181, #135, #199, .T. ) ;
#210 = EDGE_CURVE ( 'NONE', #135, #35, #225, .T. ) ;
#211 = DATE_AND_TIME ( #122, #169 ) ;
#212 = ORIENTED_EDGE ( 'NONE', *, *, #222, .F. ) ;
#213 = EDGE_LOOP ( 'NONE', ( #93, #58, #180, #5 ) ) ;
#214 = CARTESIAN_POINT ( 'NONE',  ( -10.00000000000000000, -7.500000000000000000, -500.0000000000000000 ) ) ;
#215 = LOCAL_TIME ( 13, 52, 13.00000000000000000, #119 ) ;
#216 = CARTESIAN_POINT ( 'NONE',  ( 0.0000000000000000000, 0.0000000000000000000, 500.0000000000000000 ) ) ;
#217 = ORIENTED_EDGE ( 'NONE', *, *, #134, .T. ) ;
#218 = PLANE ( 'NONE',  #130 ) ;
#219 = EDGE_LOOP ( 'NONE', ( #195, #4, #185, #73 ) ) ;
#220 = APPROVAL_PERSON_ORGANIZATION ( #226, #9, #3 ) ;
#221 = CARTESIAN_POINT ( 'NONE',  ( -10.00000000000000200, 7.500000000000000000, 500.0000000000000000 ) ) ;
#222 = EDGE_CURVE ( 'NONE', #35, #76, #148, .T. ) ;
#223 = LINE ( 'NONE', #124, #131 ) ;
#224 = COORDINATED_UNIVERSAL_TIME_OFFSET ( 9, 0, .AHEAD. ) ;
#225 = LINE ( 'NONE', #111, #140 ) ;
#226 = PERSON_AND_ORGANIZATION ( #109, #188 ) ;
#227 = DIRECTION ( 'NONE',  ( 0.0000000000000000000, 1.000000000000000000, 0.0000000000000000000 ) ) ;
#228 = ADVANCED_BREP_SHAPE_REPRESENTATION ( 'sone3D', ( #97, #71 ), #117 ) ;
#229 = ORIENTED_EDGE ( 'NONE', *, *, #209, .T. ) ;
#230 = ORIENTED_EDGE ( 'NONE', *, *, #178, .T. ) ;
#231 = DIRECTION ( 'NONE',  ( 1.000000000000000000, 0.0000000000000000000, 0.0000000000000000000 ) ) ;
#232 = EDGE_CURVE ( 'NONE', #135, #110, #145, .T. ) ;
#233 = CARTESIAN_POINT ( 'NONE',  ( -10.00000000000000000, -7.500000000000000000, -500.0000000000000000 ) ) ;
#234 = CARTESIAN_POINT ( 'NONE',  ( -10.00000000000000000, -7.500000000000000000, 500.0000000000000000 ) ) ;
#235 = CALENDAR_DATE ( 2017, 2, 11 ) ;
#236 = ORIENTED_EDGE ( 'NONE', *, *, #125, .F. ) ;
#237 = DIRECTION ( 'NONE',  ( -2.312964634635743000E-016, 1.000000000000000000, -0.0000000000000000000 ) ) ;
ENDSEC;
END-ISO-10303-21;
