ISO-10303-21;
HEADER;
FILE_DESCRIPTION (( 'STEP AP203' ),
    '1' );
FILE_NAME ('sone3D.STEP',
    '2017-11-02T04:51:53',
    ( '' ),
    ( '' ),
    'SwSTEP 2.0',
    'SolidWorks 2014',
    '' );
FILE_SCHEMA (( 'CONFIG_CONTROL_DESIGN' ));
ENDSEC;

DATA;
#1 = APPROVAL_STATUS ( 'not_yet_approved' ) ;
#2 = APPLICATION_PROTOCOL_DEFINITION ( 'international standard', 'config_control_design', 1994, #6 ) ;
#3 = APPROVAL_ROLE ( '' ) ;
#4 = CC_DESIGN_SECURITY_CLASSIFICATION ( #32, ( #50 ) ) ;
#5 = ORIENTED_EDGE ( 'NONE', *, *, #199, .F. ) ;
#6 = APPLICATION_CONTEXT ( 'configuration controlled 3d designs of mechanical parts and assemblies' ) ;
#7 = PERSON_AND_ORGANIZATION_ROLE ( 'creator' ) ;
#8 = APPROVAL_STATUS ( 'not_yet_approved' ) ;
#9 = PERSON_AND_ORGANIZATION_ROLE ( 'design_owner' ) ;
#10 = VERTEX_POINT ( 'NONE', #168 ) ;
#11 = MANIFOLD_SOLID_BREP ( 'ÎÞ½ - µoµ1', #39 ) ;
#12 = CC_DESIGN_APPROVAL ( #14, ( #32 ) ) ;
#13 = PERSON_AND_ORGANIZATION ( #95, #200 ) ;
#14 = APPROVAL ( #8, 'UNSPECIFIED' ) ;
#15 = APPROVAL_DATE_TIME ( #137, #14 ) ;
#16 = ORIENTED_EDGE ( 'NONE', *, *, #222, .T. ) ;
#17 = CC_DESIGN_DATE_AND_TIME_ASSIGNMENT ( #89, #134, ( #32 ) ) ;
#18 = MECHANICAL_CONTEXT ( 'NONE', #28, 'mechanical' ) ;
#19 = EDGE_LOOP ( 'NONE', ( #177, #127, #63, #188 ) ) ;
#20 = DIRECTION ( 'NONE',  ( 1.000000000000000000, 0.0000000000000000000, 0.0000000000000000000 ) ) ;
#21 = CC_DESIGN_PERSON_AND_ORGANIZATION_ASSIGNMENT ( #157, #101, ( #32 ) ) ;
#22 = DIRECTION ( 'NONE',  ( 0.0000000000000000000, 0.0000000000000000000, 1.000000000000000000 ) ) ;
#23 = COORDINATED_UNIVERSAL_TIME_OFFSET ( 9, 0, .AHEAD. ) ;
#24 = DIRECTION ( 'NONE',  ( 1.000000000000000000, -5.782411586589357400E-017, 0.0000000000000000000 ) ) ;
#25 = VECTOR ( 'NONE', #145, 1000.000000000000000 ) ;
#26 = CARTESIAN_POINT ( 'NONE',  ( -7.499999999999999100, -7.500000000000001800, -500.0000000000000000 ) ) ;
#27 = DIRECTION ( 'NONE',  ( -1.000000000000000000, -1.734723475976807100E-016, 0.0000000000000000000 ) ) ;
#28 = APPLICATION_CONTEXT ( 'configuration controlled 3d designs of mechanical parts and assemblies' ) ;
#29 = APPLICATION_PROTOCOL_DEFINITION ( 'international standard', 'config_control_design', 1994, #28 ) ;
#30 = APPROVAL_ROLE ( '' ) ;
#31 = DATE_AND_TIME ( #173, #103 ) ;
#32 = SECURITY_CLASSIFICATION ( '', '', #78 ) ;
#33 = ORIENTED_EDGE ( 'NONE', *, *, #199, .T. ) ;
#34 = LINE ( 'NONE', #190, #144 ) ;
#35 = CC_DESIGN_PERSON_AND_ORGANIZATION_ASSIGNMENT ( #133, #183, ( #50 ) ) ;
#36 = VERTEX_POINT ( 'NONE', #26 ) ;
#37 = CC_DESIGN_PERSON_AND_ORGANIZATION_ASSIGNMENT ( #13, #224, ( #50 ) ) ;
#38 = CALENDAR_DATE ( 2017, 2, 11 ) ;
#39 = CLOSED_SHELL ( 'NONE', ( #148, #74, #225, #164, #49, #213 ) ) ;
#40 = PLANE ( 'NONE',  #235 ) ;
#41 = PERSON_AND_ORGANIZATION ( #95, #200 ) ;
#42 =( NAMED_UNIT ( * ) SI_UNIT ( $, .STERADIAN. ) SOLID_ANGLE_UNIT ( ) );
#43 = CC_DESIGN_APPROVAL ( #46, ( #50 ) ) ;
#44 =( NAMED_UNIT ( * ) PLANE_ANGLE_UNIT ( ) SI_UNIT ( $, .RADIAN. ) );
#45 =( LENGTH_UNIT ( ) NAMED_UNIT ( * ) SI_UNIT ( .MILLI., .METRE. ) );
#46 = APPROVAL ( #53, 'UNSPECIFIED' ) ;
#47 = DATE_TIME_ROLE ( 'creation_date' ) ;
#48 = VECTOR ( 'NONE', #156, 1000.000000000000000 ) ;
#49 = ADVANCED_FACE ( 'NONE', ( #160 ), #40, .T. ) ;
#50 = PRODUCT_DEFINITION_FORMATION_WITH_SPECIFIED_SOURCE ( 'ANY', '', #149, .NOT_KNOWN. ) ;
#51 = DIRECTION ( 'NONE',  ( 1.000000000000000000, 0.0000000000000000000, 0.0000000000000000000 ) ) ;
#52 = VECTOR ( 'NONE', #141, 1000.000000000000000 ) ;
#53 = APPROVAL_STATUS ( 'not_yet_approved' ) ;
#54 = CARTESIAN_POINT ( 'NONE',  ( 7.499999999999998200, 7.499999999999998200, -500.0000000000000000 ) ) ;
#55 = CARTESIAN_POINT ( 'NONE',  ( -7.499999999999999100, -7.500000000000001800, -500.0000000000000000 ) ) ;
#56 = LOCAL_TIME ( 13, 51, 53.00000000000000000, #23 ) ;
#57 = ORIENTED_EDGE ( 'NONE', *, *, #181, .F. ) ;
#58 = CC_DESIGN_DATE_AND_TIME_ASSIGNMENT ( #226, #47, ( #97 ) ) ;
#59 = PERSON_AND_ORGANIZATION ( #95, #200 ) ;
#60 = AXIS2_PLACEMENT_3D ( 'NONE', #159, #150, #142 ) ;
#61 = PERSON_AND_ORGANIZATION ( #95, #200 ) ;
#62 =( GEOMETRIC_REPRESENTATION_CONTEXT ( 3 ) GLOBAL_UNCERTAINTY_ASSIGNED_CONTEXT ( ( #64 ) ) GLOBAL_UNIT_ASSIGNED_CONTEXT ( ( #45, #44, #42 ) ) REPRESENTATION_CONTEXT ( 'NONE', 'WORKASPACE' ) );
#63 = ORIENTED_EDGE ( 'NONE', *, *, #162, .F. ) ;
#64 = UNCERTAINTY_MEASURE_WITH_UNIT (LENGTH_MEASURE( 1.000000000000000100E-005 ), #45, 'distance_accuracy_value', 'NONE');
#65 = DIRECTION ( 'NONE',  ( -5.782411586589357400E-017, -1.000000000000000000, 0.0000000000000000000 ) ) ;
#66 = DIRECTION ( 'NONE',  ( -0.0000000000000000000, 0.0000000000000000000, 1.000000000000000000 ) ) ;
#67 = APPROVAL_ROLE ( '' ) ;
#68 = ORIENTED_EDGE ( 'NONE', *, *, #136, .T. ) ;
#69 = CARTESIAN_POINT ( 'NONE',  ( -7.500000000000000900, 7.499999999999999100, -500.0000000000000000 ) ) ;
#70 = CARTESIAN_POINT ( 'NONE',  ( -7.500000000000000900, 7.499999999999999100, 500.0000000000000000 ) ) ;
#71 = LINE ( 'NONE', #69, #123 ) ;
#72 = EDGE_CURVE ( 'NONE', #135, #182, #128, .T. ) ;
#73 = CARTESIAN_POINT ( 'NONE',  ( 0.0000000000000000000, 0.0000000000000000000, 0.0000000000000000000 ) ) ;
#74 = ADVANCED_FACE ( 'NONE', ( #172 ), #167, .F. ) ;
#75 = VECTOR ( 'NONE', #90, 1000.000000000000000 ) ;
#76 = CARTESIAN_POINT ( 'NONE',  ( -7.500000000000000900, 7.499999999999999100, -500.0000000000000000 ) ) ;
#77 = DIRECTION ( 'NONE',  ( 1.734723475976807100E-016, -1.000000000000000000, 0.0000000000000000000 ) ) ;
#78 = SECURITY_CLASSIFICATION_LEVEL ( 'unclassified' ) ;
#79 = PRODUCT_RELATED_PRODUCT_CATEGORY ( 'detail', '', ( #149 ) ) ;
#80 = CARTESIAN_POINT ( 'NONE',  ( 7.499999999999998200, 7.499999999999998200, 500.0000000000000000 ) ) ;
#81 = AXIS2_PLACEMENT_3D ( 'NONE', #118, #66, #99 ) ;
#82 = CALENDAR_DATE ( 2017, 2, 11 ) ;
#83 = LINE ( 'NONE', #94, #48 ) ;
#84 = AXIS2_PLACEMENT_3D ( 'NONE', #234, #65, #24 ) ;
#85 = PRODUCT_DEFINITION_SHAPE ( 'NONE', 'NONE',  #97 ) ;
#86 = AXIS2_PLACEMENT_3D ( 'NONE', #73, #22, #20 ) ;
#87 = CARTESIAN_POINT ( 'NONE',  ( 7.499999999999998200, 7.499999999999998200, -500.0000000000000000 ) ) ;
#88 = CARTESIAN_POINT ( 'NONE',  ( -7.499999999999999100, -7.500000000000001800, 500.0000000000000000 ) ) ;
#89 = DATE_AND_TIME ( #38, #203 ) ;
#90 = DIRECTION ( 'NONE',  ( -1.000000000000000000, 5.782411586589357400E-017, -0.0000000000000000000 ) ) ;
#91 = COORDINATED_UNIVERSAL_TIME_OFFSET ( 9, 0, .AHEAD. ) ;
#92 = CC_DESIGN_PERSON_AND_ORGANIZATION_ASSIGNMENT ( #59, #9, ( #149 ) ) ;
#93 = ORIENTED_EDGE ( 'NONE', *, *, #155, .T. ) ;
#94 = CARTESIAN_POINT ( 'NONE',  ( -7.499999999999999100, -7.500000000000001800, 500.0000000000000000 ) ) ;
#95 = PERSON ( 'UNSPECIFIED', 'UNSPECIFIED', 'UNSPECIFIED', ('UNSPECIFIED'), ('UNSPECIFIED'), ('UNSPECIFIED') ) ;
#96 = PLANE ( 'NONE',  #151 ) ;
#97 = PRODUCT_DEFINITION ( 'UNKNOWN', '', #50, #210 ) ;
#98 = VECTOR ( 'NONE', #131, 1000.000000000000000 ) ;
#99 = DIRECTION ( 'NONE',  ( 1.000000000000000000, 0.0000000000000000000, 0.0000000000000000000 ) ) ;
#100 = DIRECTION ( 'NONE',  ( -1.156482317317871500E-016, 1.000000000000000000, 0.0000000000000000000 ) ) ;
#101 = PERSON_AND_ORGANIZATION_ROLE ( 'classification_officer' ) ;
#102 = VECTOR ( 'NONE', #223, 1000.000000000000000 ) ;
#103 = LOCAL_TIME ( 13, 51, 53.00000000000000000, #91 ) ;
#104 = DIRECTION ( 'NONE',  ( 1.000000000000000000, 1.156482317317871500E-016, -0.0000000000000000000 ) ) ;
#105 = APPROVAL_PERSON_ORGANIZATION ( #230, #46, #3 ) ;
#106 = APPROVAL_PERSON_ORGANIZATION ( #61, #107, #30 ) ;
#107 = APPROVAL ( #1, 'UNSPECIFIED' ) ;
#108 = LINE ( 'NONE', #163, #174 ) ;
#109 = CC_DESIGN_PERSON_AND_ORGANIZATION_ASSIGNMENT ( #169, #7, ( #97 ) ) ;
#110 = CC_DESIGN_APPROVAL ( #107, ( #97 ) ) ;
#111 = PLANE ( 'NONE',  #125 ) ;
#112 = DIRECTION ( 'NONE',  ( -0.0000000000000000000, 0.0000000000000000000, 1.000000000000000000 ) ) ;
#113 = DIRECTION ( 'NONE',  ( 1.000000000000000000, 0.0000000000000000000, 0.0000000000000000000 ) ) ;
#114 = VECTOR ( 'NONE', #113, 1000.000000000000000 ) ;
#115 = APPROVAL_PERSON_ORGANIZATION ( #41, #14, #67 ) ;
#116 = VERTEX_POINT ( 'NONE', #202 ) ;
#117 = FACE_OUTER_BOUND ( 'NONE', #216, .T. ) ;
#118 = CARTESIAN_POINT ( 'NONE',  ( 0.0000000000000000000, 0.0000000000000000000, -500.0000000000000000 ) ) ;
#119 = ADVANCED_BREP_SHAPE_REPRESENTATION ( 'sone3D', ( #11, #86 ), #62 ) ;
#120 = EDGE_LOOP ( 'NONE', ( #16, #170, #221, #184 ) ) ;
#121 = CARTESIAN_POINT ( 'NONE',  ( -7.499999999999999100, -7.500000000000001800, 500.0000000000000000 ) ) ;
#122 = APPROVAL_DATE_TIME ( #31, #107 ) ;
#123 = VECTOR ( 'NONE', #192, 1000.000000000000000 ) ;
#124 = ORIENTED_EDGE ( 'NONE', *, *, #229, .T. ) ;
#125 = AXIS2_PLACEMENT_3D ( 'NONE', #236, #104, #100 ) ;
#126 = ORIENTED_EDGE ( 'NONE', *, *, #72, .F. ) ;
#127 = ORIENTED_EDGE ( 'NONE', *, *, #228, .F. ) ;
#128 = LINE ( 'NONE', #185, #52 ) ;
#129 = CARTESIAN_POINT ( 'NONE',  ( 7.500000000000000900, -7.500000000000001800, 500.0000000000000000 ) ) ;
#130 = LINE ( 'NONE', #205, #102 ) ;
#131 = DIRECTION ( 'NONE',  ( -0.0000000000000000000, -0.0000000000000000000, -1.000000000000000000 ) ) ;
#132 = FACE_OUTER_BOUND ( 'NONE', #196, .T. ) ;
#133 = PERSON_AND_ORGANIZATION ( #95, #200 ) ;
#134 = DATE_TIME_ROLE ( 'classification_date' ) ;
#135 = VERTEX_POINT ( 'NONE', #129 ) ;
#136 = EDGE_CURVE ( 'NONE', #231, #135, #197, .T. ) ;
#137 = DATE_AND_TIME ( #189, #56 ) ;
#138 = ORIENTED_EDGE ( 'NONE', *, *, #136, .F. ) ;
#139 = ORIENTED_EDGE ( 'NONE', *, *, #72, .T. ) ;
#140 = CARTESIAN_POINT ( 'NONE',  ( 7.500000000000000900, -7.500000000000001800, -500.0000000000000000 ) ) ;
#141 = DIRECTION ( 'NONE',  ( -1.734723475976807100E-016, 1.000000000000000000, -0.0000000000000000000 ) ) ;
#142 = DIRECTION ( 'NONE',  ( 0.0000000000000000000, -0.0000000000000000000, 1.000000000000000000 ) ) ;
#143 = VECTOR ( 'NONE', #51, 1000.000000000000000 ) ;
#144 = VECTOR ( 'NONE', #176, 1000.000000000000000 ) ;
#145 = DIRECTION ( 'NONE',  ( -1.000000000000000000, 5.782411586589357400E-017, -0.0000000000000000000 ) ) ;
#146 = LOCAL_TIME ( 13, 51, 53.00000000000000000, #175 ) ;
#147 = PLANE ( 'NONE',  #81 ) ;
#148 = ADVANCED_FACE ( 'NONE', ( #193 ), #111, .F. ) ;
#149 = PRODUCT ( 'sone3D', 'sone3D', '', ( #18 ) ) ;
#150 = DIRECTION ( 'NONE',  ( 0.0000000000000000000, 1.000000000000000000, 0.0000000000000000000 ) ) ;
#151 = AXIS2_PLACEMENT_3D ( 'NONE', #80, #27, #77 ) ;
#152 = ORIENTED_EDGE ( 'NONE', *, *, #162, .T. ) ;
#153 = VERTEX_POINT ( 'NONE', #140 ) ;
#154 = EDGE_LOOP ( 'NONE', ( #124, #5, #138, #93 ) ) ;
#155 = EDGE_CURVE ( 'NONE', #231, #36, #83, .T. ) ;
#156 = DIRECTION ( 'NONE',  ( -0.0000000000000000000, -0.0000000000000000000, -1.000000000000000000 ) ) ;
#157 = PERSON_AND_ORGANIZATION ( #95, #200 ) ;
#158 = SHAPE_DEFINITION_REPRESENTATION ( #85, #119 ) ;
#159 = CARTESIAN_POINT ( 'NONE',  ( -7.499999999999999100, -7.500000000000001800, 500.0000000000000000 ) ) ;
#160 = FACE_OUTER_BOUND ( 'NONE', #211, .T. ) ;
#161 = ORIENTED_EDGE ( 'NONE', *, *, #228, .T. ) ;
#162 = EDGE_CURVE ( 'NONE', #153, #233, #212, .T. ) ;
#163 = CARTESIAN_POINT ( 'NONE',  ( 7.499999999999998200, 7.499999999999998200, 500.0000000000000000 ) ) ;
#164 = ADVANCED_FACE ( 'NONE', ( #117 ), #219, .F. ) ;
#165 = COORDINATED_UNIVERSAL_TIME_OFFSET ( 9, 0, .AHEAD. ) ;
#166 = ORIENTED_EDGE ( 'NONE', *, *, #206, .T. ) ;
#167 = PLANE ( 'NONE',  #60 ) ;
#168 = CARTESIAN_POINT ( 'NONE',  ( -7.500000000000000900, 7.499999999999999100, -500.0000000000000000 ) ) ;
#169 = PERSON_AND_ORGANIZATION ( #95, #200 ) ;
#170 = ORIENTED_EDGE ( 'NONE', *, *, #155, .F. ) ;
#171 = EDGE_CURVE ( 'NONE', #116, #231, #130, .T. ) ;
#172 = FACE_OUTER_BOUND ( 'NONE', #154, .T. ) ;
#173 = CALENDAR_DATE ( 2017, 2, 11 ) ;
#174 = VECTOR ( 'NONE', #218, 1000.000000000000000 ) ;
#175 = COORDINATED_UNIVERSAL_TIME_OFFSET ( 9, 0, .AHEAD. ) ;
#176 = DIRECTION ( 'NONE',  ( -0.0000000000000000000, -0.0000000000000000000, -1.000000000000000000 ) ) ;
#177 = ORIENTED_EDGE ( 'NONE', *, *, #222, .F. ) ;
#178 = LINE ( 'NONE', #55, #143 ) ;
#179 = CARTESIAN_POINT ( 'NONE',  ( 7.499999999999998200, 7.499999999999998200, 500.0000000000000000 ) ) ;
#180 = LOCAL_TIME ( 13, 51, 53.00000000000000000, #165 ) ;
#181 = EDGE_CURVE ( 'NONE', #116, #10, #191, .T. ) ;
#182 = VERTEX_POINT ( 'NONE', #179 ) ;
#183 = PERSON_AND_ORGANIZATION_ROLE ( 'design_supplier' ) ;
#184 = ORIENTED_EDGE ( 'NONE', *, *, #181, .T. ) ;
#185 = CARTESIAN_POINT ( 'NONE',  ( 7.499999999999998200, 7.499999999999998200, 500.0000000000000000 ) ) ;
#186 = ORIENTED_EDGE ( 'NONE', *, *, #206, .F. ) ;
#187 = DATE_AND_TIME ( #237, #146 ) ;
#188 = ORIENTED_EDGE ( 'NONE', *, *, #229, .F. ) ;
#189 = CALENDAR_DATE ( 2017, 2, 11 ) ;
#190 = CARTESIAN_POINT ( 'NONE',  ( 7.500000000000000900, -7.500000000000001800, 500.0000000000000000 ) ) ;
#191 = LINE ( 'NONE', #207, #98 ) ;
#192 = DIRECTION ( 'NONE',  ( 1.156482317317871500E-016, -1.000000000000000000, 0.0000000000000000000 ) ) ;
#193 = FACE_OUTER_BOUND ( 'NONE', #120, .T. ) ;
#194 = FACE_OUTER_BOUND ( 'NONE', #19, .T. ) ;
#195 = LINE ( 'NONE', #76, #75 ) ;
#196 = EDGE_LOOP ( 'NONE', ( #152, #227, #126, #33 ) ) ;
#197 = LINE ( 'NONE', #121, #114 ) ;
#198 = LINE ( 'NONE', #70, #25 ) ;
#199 = EDGE_CURVE ( 'NONE', #135, #153, #34, .T. ) ;
#200 = ORGANIZATION ( 'UNSPECIFIED', 'UNSPECIFIED', '' ) ;
#201 = CARTESIAN_POINT ( 'NONE',  ( 0.0000000000000000000, 0.0000000000000000000, 500.0000000000000000 ) ) ;
#202 = CARTESIAN_POINT ( 'NONE',  ( -7.500000000000000900, 7.499999999999999100, 500.0000000000000000 ) ) ;
#203 = LOCAL_TIME ( 13, 51, 53.00000000000000000, #208 ) ;
#204 = VECTOR ( 'NONE', #209, 1000.000000000000000 ) ;
#205 = CARTESIAN_POINT ( 'NONE',  ( -7.500000000000000900, 7.499999999999999100, 500.0000000000000000 ) ) ;
#206 = EDGE_CURVE ( 'NONE', #182, #116, #198, .T. ) ;
#207 = CARTESIAN_POINT ( 'NONE',  ( -7.500000000000000900, 7.499999999999999100, 500.0000000000000000 ) ) ;
#208 = COORDINATED_UNIVERSAL_TIME_OFFSET ( 9, 0, .AHEAD. ) ;
#209 = DIRECTION ( 'NONE',  ( -1.734723475976807100E-016, 1.000000000000000000, -0.0000000000000000000 ) ) ;
#210 = DESIGN_CONTEXT ( 'detailed design', #6, 'design' ) ;
#211 = EDGE_LOOP ( 'NONE', ( #232, #68, #139, #166 ) ) ;
#212 = LINE ( 'NONE', #87, #204 ) ;
#213 = ADVANCED_FACE ( 'NONE', ( #194 ), #147, .F. ) ;
#214 = APPROVAL_DATE_TIME ( #187, #46 ) ;
#215 = ORIENTED_EDGE ( 'NONE', *, *, #217, .T. ) ;
#216 = EDGE_LOOP ( 'NONE', ( #161, #57, #186, #215 ) ) ;
#217 = EDGE_CURVE ( 'NONE', #182, #233, #108, .T. ) ;
#218 = DIRECTION ( 'NONE',  ( -0.0000000000000000000, -0.0000000000000000000, -1.000000000000000000 ) ) ;
#219 = PLANE ( 'NONE',  #84 ) ;
#220 = DIRECTION ( 'NONE',  ( 1.000000000000000000, 0.0000000000000000000, 0.0000000000000000000 ) ) ;
#221 = ORIENTED_EDGE ( 'NONE', *, *, #171, .F. ) ;
#222 = EDGE_CURVE ( 'NONE', #10, #36, #71, .T. ) ;
#223 = DIRECTION ( 'NONE',  ( 1.156482317317871500E-016, -1.000000000000000000, 0.0000000000000000000 ) ) ;
#224 = PERSON_AND_ORGANIZATION_ROLE ( 'creator' ) ;
#225 = ADVANCED_FACE ( 'NONE', ( #132 ), #96, .F. ) ;
#226 = DATE_AND_TIME ( #82, #180 ) ;
#227 = ORIENTED_EDGE ( 'NONE', *, *, #217, .F. ) ;
#228 = EDGE_CURVE ( 'NONE', #233, #10, #195, .T. ) ;
#229 = EDGE_CURVE ( 'NONE', #36, #153, #178, .T. ) ;
#230 = PERSON_AND_ORGANIZATION ( #95, #200 ) ;
#231 = VERTEX_POINT ( 'NONE', #88 ) ;
#232 = ORIENTED_EDGE ( 'NONE', *, *, #171, .T. ) ;
#233 = VERTEX_POINT ( 'NONE', #54 ) ;
#234 = CARTESIAN_POINT ( 'NONE',  ( -7.500000000000000900, 7.499999999999999100, 500.0000000000000000 ) ) ;
#235 = AXIS2_PLACEMENT_3D ( 'NONE', #201, #112, #220 ) ;
#236 = CARTESIAN_POINT ( 'NONE',  ( -7.500000000000000900, 7.499999999999999100, 500.0000000000000000 ) ) ;
#237 = CALENDAR_DATE ( 2017, 2, 11 ) ;
ENDSEC;
END-ISO-10303-21;
