ISO-10303-21;
HEADER;
FILE_DESCRIPTION (( 'STEP AP203' ),
    '1' );
FILE_NAME ('sone3D.STEP',
    '2017-11-02T04:51:37',
    ( '' ),
    ( '' ),
    'SwSTEP 2.0',
    'SolidWorks 2014',
    '' );
FILE_SCHEMA (( 'CONFIG_CONTROL_DESIGN' ));
ENDSEC;

DATA;
#1 = CC_DESIGN_SECURITY_CLASSIFICATION ( #17, ( #31 ) ) ;
#2 = ORIENTED_EDGE ( 'NONE', *, *, #36, .F. ) ;
#3 = ORIENTED_EDGE ( 'NONE', *, *, #92, .T. ) ;
#4 = ORIENTED_EDGE ( 'NONE', *, *, #148, .T. ) ;
#5 = PRODUCT_RELATED_PRODUCT_CATEGORY ( 'detail', '', ( #94 ) ) ;
#6 = LINE ( 'NONE', #76, #33 ) ;
#7 = CC_DESIGN_APPROVAL ( #9, ( #17 ) ) ;
#8 = CALENDAR_DATE ( 2017, 2, 11 ) ;
#9 = APPROVAL ( #137, 'UNSPECIFIED' ) ;
#10 = CC_DESIGN_DATE_AND_TIME_ASSIGNMENT ( #22, #138, ( #17 ) ) ;
#11 = DIRECTION ( 'NONE',  ( -0.0000000000000000000, 0.0000000000000000000, 1.000000000000000000 ) ) ;
#12 =( NAMED_UNIT ( * ) PLANE_ANGLE_UNIT ( ) SI_UNIT ( $, .RADIAN. ) );
#13 = CC_DESIGN_PERSON_AND_ORGANIZATION_ASSIGNMENT ( #61, #141, ( #17 ) ) ;
#14 = ORIENTED_EDGE ( 'NONE', *, *, #96, .T. ) ;
#15 = ORIENTED_EDGE ( 'NONE', *, *, #232, .T. ) ;
#16 = DESIGN_CONTEXT ( 'detailed design', #178, 'design' ) ;
#17 = SECURITY_CLASSIFICATION ( '', '', #143 ) ;
#18 = PERSON_AND_ORGANIZATION ( #146, #51 ) ;
#19 = CC_DESIGN_PERSON_AND_ORGANIZATION_ASSIGNMENT ( #83, #144, ( #31 ) ) ;
#20 = LINE ( 'NONE', #207, #224 ) ;
#21 = LINE ( 'NONE', #181, #173 ) ;
#22 = DATE_AND_TIME ( #27, #47 ) ;
#23 = CARTESIAN_POINT ( 'NONE',  ( -15.00000000000000000, 4.999999999999998200, 500.0000000000000000 ) ) ;
#24 =( LENGTH_UNIT ( ) NAMED_UNIT ( * ) SI_UNIT ( .MILLI., .METRE. ) );
#25 = VECTOR ( 'NONE', #58, 1000.000000000000000 ) ;
#26 = CC_DESIGN_PERSON_AND_ORGANIZATION_ASSIGNMENT ( #112, #145, ( #31 ) ) ;
#27 = CALENDAR_DATE ( 2017, 2, 11 ) ;
#28 = CC_DESIGN_APPROVAL ( #30, ( #31 ) ) ;
#29 = ORIENTED_EDGE ( 'NONE', *, *, #194, .T. ) ;
#30 = APPROVAL ( #156, 'UNSPECIFIED' ) ;
#31 = PRODUCT_DEFINITION_FORMATION_WITH_SPECIFIED_SOURCE ( 'ANY', '', #94, .NOT_KNOWN. ) ;
#32 = ORIENTED_EDGE ( 'NONE', *, *, #74, .T. ) ;
#33 = VECTOR ( 'NONE', #57, 1000.000000000000000 ) ;
#34 = CC_DESIGN_DATE_AND_TIME_ASSIGNMENT ( #128, #160, ( #62 ) ) ;
#35 = APPROVAL_DATE_TIME ( #101, #70 ) ;
#36 = EDGE_CURVE ( 'NONE', #154, #98, #20, .T. ) ;
#37 = LINE ( 'NONE', #23, #54 ) ;
#38 = CARTESIAN_POINT ( 'NONE',  ( -15.00000000000000000, 4.999999999999998200, 500.0000000000000000 ) ) ;
#39 = CARTESIAN_POINT ( 'NONE',  ( 15.00000000000000000, 4.999999999999998200, 500.0000000000000000 ) ) ;
#40 = EDGE_LOOP ( 'NONE', ( #197, #2, #53, #123 ) ) ;
#41 = AXIS2_PLACEMENT_3D ( 'NONE', #102, #81, #79 ) ;
#42 = EDGE_LOOP ( 'NONE', ( #32, #50, #223, #184 ) ) ;
#43 = CARTESIAN_POINT ( 'NONE',  ( 15.00000000000000200, -5.000000000000001800, -500.0000000000000000 ) ) ;
#44 = VECTOR ( 'NONE', #118, 1000.000000000000000 ) ;
#45 = CARTESIAN_POINT ( 'NONE',  ( 0.0000000000000000000, 0.0000000000000000000, 0.0000000000000000000 ) ) ;
#46 = LINE ( 'NONE', #105, #86 ) ;
#47 = LOCAL_TIME ( 13, 51, 37.00000000000000000, #48 ) ;
#48 = COORDINATED_UNIVERSAL_TIME_OFFSET ( 9, 0, .AHEAD. ) ;
#49 = DIRECTION ( 'NONE',  ( -1.000000000000000000, -0.0000000000000000000, -0.0000000000000000000 ) ) ;
#50 = ORIENTED_EDGE ( 'NONE', *, *, #164, .F. ) ;
#51 = ORGANIZATION ( 'UNSPECIFIED', 'UNSPECIFIED', '' ) ;
#52 = AXIS2_PLACEMENT_3D ( 'NONE', #122, #11, #103 ) ;
#53 = ORIENTED_EDGE ( 'NONE', *, *, #74, .F. ) ;
#54 = VECTOR ( 'NONE', #64, 1000.000000000000000 ) ;
#55 = AXIS2_PLACEMENT_3D ( 'NONE', #45, #206, #198 ) ;
#56 = COORDINATED_UNIVERSAL_TIME_OFFSET ( 9, 0, .AHEAD. ) ;
#57 = DIRECTION ( 'NONE',  ( 1.000000000000000000, 0.0000000000000000000, 0.0000000000000000000 ) ) ;
#58 = DIRECTION ( 'NONE',  ( 1.734723475976807100E-016, -1.000000000000000000, 0.0000000000000000000 ) ) ;
#59 = CC_DESIGN_PERSON_AND_ORGANIZATION_ASSIGNMENT ( #162, #179, ( #94 ) ) ;
#60 = DIRECTION ( 'NONE',  ( -0.0000000000000000000, -0.0000000000000000000, -1.000000000000000000 ) ) ;
#61 = PERSON_AND_ORGANIZATION ( #146, #51 ) ;
#62 = PRODUCT_DEFINITION ( 'UNKNOWN', '', #31, #16 ) ;
#63 = SHAPE_DEFINITION_REPRESENTATION ( #229, #158 ) ;
#64 = DIRECTION ( 'NONE',  ( -0.0000000000000000000, -0.0000000000000000000, -1.000000000000000000 ) ) ;
#65 = FACE_OUTER_BOUND ( 'NONE', #152, .T. ) ;
#66 = CARTESIAN_POINT ( 'NONE',  ( 15.00000000000000200, -5.000000000000001800, 500.0000000000000000 ) ) ;
#67 = MANIFOLD_SOLID_BREP ( 'ÎÞ½ - µoµ1', #159 ) ;
#68 = ADVANCED_FACE ( 'NONE', ( #129 ), #203, .T. ) ;
#69 = ORIENTED_EDGE ( 'NONE', *, *, #164, .T. ) ;
#70 = APPROVAL ( #170, 'UNSPECIFIED' ) ;
#71 = ADVANCED_FACE ( 'NONE', ( #220 ), #157, .F. ) ;
#72 = CC_DESIGN_PERSON_AND_ORGANIZATION_ASSIGNMENT ( #104, #161, ( #62 ) ) ;
#73 = DATE_AND_TIME ( #117, #136 ) ;
#74 = EDGE_CURVE ( 'NONE', #151, #154, #21, .T. ) ;
#75 = ADVANCED_FACE ( 'NONE', ( #209 ), #183, .F. ) ;
#76 = CARTESIAN_POINT ( 'NONE',  ( -14.99999999999999800, -5.000000000000001800, -500.0000000000000000 ) ) ;
#77 =( GEOMETRIC_REPRESENTATION_CONTEXT ( 3 ) GLOBAL_UNCERTAINTY_ASSIGNED_CONTEXT ( ( #114 ) ) GLOBAL_UNIT_ASSIGNED_CONTEXT ( ( #24, #12, #116 ) ) REPRESENTATION_CONTEXT ( 'NONE', 'WORKASPACE' ) );
#78 = VERTEX_POINT ( 'NONE', #187 ) ;
#79 = DIRECTION ( 'NONE',  ( 0.0000000000000000000, -0.0000000000000000000, -1.000000000000000000 ) ) ;
#80 = ORIENTED_EDGE ( 'NONE', *, *, #182, .F. ) ;
#81 = DIRECTION ( 'NONE',  ( 0.0000000000000000000, -1.000000000000000000, 0.0000000000000000000 ) ) ;
#82 = ADVANCED_FACE ( 'NONE', ( #139 ), #140, .F. ) ;
#83 = PERSON_AND_ORGANIZATION ( #146, #51 ) ;
#84 = CARTESIAN_POINT ( 'NONE',  ( -15.00000000000000000, 4.999999999999998200, 500.0000000000000000 ) ) ;
#85 = PLANE ( 'NONE',  #41 ) ;
#86 = VECTOR ( 'NONE', #49, 1000.000000000000000 ) ;
#87 = CC_DESIGN_APPROVAL ( #70, ( #62 ) ) ;
#88 = DIRECTION ( 'NONE',  ( -1.734723475976807100E-016, 1.000000000000000000, -0.0000000000000000000 ) ) ;
#89 = VERTEX_POINT ( 'NONE', #100 ) ;
#90 = CARTESIAN_POINT ( 'NONE',  ( 15.00000000000000000, 4.999999999999998200, 500.0000000000000000 ) ) ;
#91 = CARTESIAN_POINT ( 'NONE',  ( -15.00000000000000000, 4.999999999999998200, -500.0000000000000000 ) ) ;
#92 = EDGE_CURVE ( 'NONE', #98, #78, #230, .T. ) ;
#93 = EDGE_LOOP ( 'NONE', ( #4, #218, #204, #217 ) ) ;
#94 = PRODUCT ( 'sone3D', 'sone3D', '', ( #185 ) ) ;
#95 = ADVANCED_FACE ( 'NONE', ( #200 ), #121, .F. ) ;
#96 = EDGE_CURVE ( 'NONE', #130, #213, #226, .T. ) ;
#97 = COORDINATED_UNIVERSAL_TIME_OFFSET ( 9, 0, .AHEAD. ) ;
#98 = VERTEX_POINT ( 'NONE', #91 ) ;
#99 = CARTESIAN_POINT ( 'NONE',  ( 15.00000000000000000, 4.999999999999998200, -500.0000000000000000 ) ) ;
#100 = CARTESIAN_POINT ( 'NONE',  ( -14.99999999999999800, -5.000000000000001800, 500.0000000000000000 ) ) ;
#101 = DATE_AND_TIME ( #8, #236 ) ;
#102 = CARTESIAN_POINT ( 'NONE',  ( -15.00000000000000000, 4.999999999999998200, 500.0000000000000000 ) ) ;
#103 = DIRECTION ( 'NONE',  ( 1.000000000000000000, 0.0000000000000000000, 0.0000000000000000000 ) ) ;
#104 = PERSON_AND_ORGANIZATION ( #146, #51 ) ;
#105 = CARTESIAN_POINT ( 'NONE',  ( -15.00000000000000000, 4.999999999999998200, 500.0000000000000000 ) ) ;
#106 = CARTESIAN_POINT ( 'NONE',  ( 15.00000000000000000, 4.999999999999998200, 500.0000000000000000 ) ) ;
#107 = CARTESIAN_POINT ( 'NONE',  ( -15.00000000000000000, 4.999999999999998200, 500.0000000000000000 ) ) ;
#108 = AXIS2_PLACEMENT_3D ( 'NONE', #192, #219, #202 ) ;
#109 = VECTOR ( 'NONE', #210, 1000.000000000000000 ) ;
#110 = ORIENTED_EDGE ( 'NONE', *, *, #232, .F. ) ;
#111 = ADVANCED_FACE ( 'NONE', ( #65 ), #85, .F. ) ;
#112 = PERSON_AND_ORGANIZATION ( #146, #51 ) ;
#113 = EDGE_LOOP ( 'NONE', ( #3, #201, #80, #29 ) ) ;
#114 = UNCERTAINTY_MEASURE_WITH_UNIT (LENGTH_MEASURE( 1.000000000000000100E-005 ), #24, 'distance_accuracy_value', 'NONE');
#115 = LINE ( 'NONE', #208, #109 ) ;
#116 =( NAMED_UNIT ( * ) SI_UNIT ( $, .STERADIAN. ) SOLID_ANGLE_UNIT ( ) );
#117 = CALENDAR_DATE ( 2017, 2, 11 ) ;
#118 = DIRECTION ( 'NONE',  ( 1.734723475976807100E-016, -1.000000000000000000, 0.0000000000000000000 ) ) ;
#119 = CALENDAR_DATE ( 2017, 2, 11 ) ;
#120 = ORIENTED_EDGE ( 'NONE', *, *, #205, .T. ) ;
#121 = PLANE ( 'NONE',  #52 ) ;
#122 = CARTESIAN_POINT ( 'NONE',  ( 0.0000000000000000000, 0.0000000000000000000, -500.0000000000000000 ) ) ;
#123 = ORIENTED_EDGE ( 'NONE', *, *, #148, .F. ) ;
#124 = DIRECTION ( 'NONE',  ( -1.734723475976807100E-016, 1.000000000000000000, 0.0000000000000000000 ) ) ;
#125 = APPROVAL_ROLE ( '' ) ;
#126 = AXIS2_PLACEMENT_3D ( 'NONE', #176, #134, #133 ) ;
#127 = AXIS2_PLACEMENT_3D ( 'NONE', #84, #167, #124 ) ;
#128 = DATE_AND_TIME ( #119, #172 ) ;
#129 = FACE_OUTER_BOUND ( 'NONE', #131, .T. ) ;
#130 = VERTEX_POINT ( 'NONE', #66 ) ;
#131 = EDGE_LOOP ( 'NONE', ( #231, #120, #14, #15 ) ) ;
#132 = AXIS2_PLACEMENT_3D ( 'NONE', #237, #191, #188 ) ;
#133 = DIRECTION ( 'NONE',  ( 1.734723475976807100E-016, -1.000000000000000000, 0.0000000000000000000 ) ) ;
#134 = DIRECTION ( 'NONE',  ( -1.000000000000000000, -1.734723475976807100E-016, 0.0000000000000000000 ) ) ;
#135 = APPLICATION_PROTOCOL_DEFINITION ( 'international standard', 'config_control_design', 1994, #199 ) ;
#136 = LOCAL_TIME ( 13, 51, 37.00000000000000000, #177 ) ;
#137 = APPROVAL_STATUS ( 'not_yet_approved' ) ;
#138 = DATE_TIME_ROLE ( 'classification_date' ) ;
#139 = FACE_OUTER_BOUND ( 'NONE', #42, .T. ) ;
#140 = PLANE ( 'NONE',  #126 ) ;
#141 = PERSON_AND_ORGANIZATION_ROLE ( 'classification_officer' ) ;
#142 = VECTOR ( 'NONE', #88, 1000.000000000000000 ) ;
#143 = SECURITY_CLASSIFICATION_LEVEL ( 'unclassified' ) ;
#144 = PERSON_AND_ORGANIZATION_ROLE ( 'design_supplier' ) ;
#145 = PERSON_AND_ORGANIZATION_ROLE ( 'creator' ) ;
#146 = PERSON ( 'UNSPECIFIED', 'UNSPECIFIED', 'UNSPECIFIED', ('UNSPECIFIED'), ('UNSPECIFIED'), ('UNSPECIFIED') ) ;
#147 = APPROVAL_DATE_TIME ( #153, #30 ) ;
#148 = EDGE_CURVE ( 'NONE', #78, #151, #6, .T. ) ;
#149 = ORIENTED_EDGE ( 'NONE', *, *, #36, .T. ) ;
#150 = LINE ( 'NONE', #221, #215 ) ;
#151 = VERTEX_POINT ( 'NONE', #43 ) ;
#152 = EDGE_LOOP ( 'NONE', ( #149, #195, #110, #69 ) ) ;
#153 = DATE_AND_TIME ( #216, #234 ) ;
#154 = VERTEX_POINT ( 'NONE', #99 ) ;
#155 = APPROVAL_ROLE ( '' ) ;
#156 = APPROVAL_STATUS ( 'not_yet_approved' ) ;
#157 = PLANE ( 'NONE',  #132 ) ;
#158 = ADVANCED_BREP_SHAPE_REPRESENTATION ( 'sone3D', ( #67, #55 ), #77 ) ;
#159 = CLOSED_SHELL ( 'NONE', ( #75, #71, #82, #111, #68, #95 ) ) ;
#160 = DATE_TIME_ROLE ( 'creation_date' ) ;
#161 = PERSON_AND_ORGANIZATION_ROLE ( 'creator' ) ;
#162 = PERSON_AND_ORGANIZATION ( #146, #51 ) ;
#163 = DIRECTION ( 'NONE',  ( -0.0000000000000000000, -0.0000000000000000000, -1.000000000000000000 ) ) ;
#164 = EDGE_CURVE ( 'NONE', #213, #154, #196, .T. ) ;
#165 = CARTESIAN_POINT ( 'NONE',  ( -15.00000000000000000, 4.999999999999998200, -500.0000000000000000 ) ) ;
#166 = APPROVAL_ROLE ( '' ) ;
#167 = DIRECTION ( 'NONE',  ( 1.000000000000000000, 1.734723475976807100E-016, -0.0000000000000000000 ) ) ;
#168 = APPROVAL_PERSON_ORGANIZATION ( #193, #30, #155 ) ;
#169 = COORDINATED_UNIVERSAL_TIME_OFFSET ( 9, 0, .AHEAD. ) ;
#170 = APPROVAL_STATUS ( 'not_yet_approved' ) ;
#171 = LINE ( 'NONE', #222, #212 ) ;
#172 = LOCAL_TIME ( 13, 51, 37.00000000000000000, #169 ) ;
#173 = VECTOR ( 'NONE', #180, 1000.000000000000000 ) ;
#174 = PERSON_AND_ORGANIZATION ( #146, #51 ) ;
#175 = APPLICATION_PROTOCOL_DEFINITION ( 'international standard', 'config_control_design', 1994, #178 ) ;
#176 = CARTESIAN_POINT ( 'NONE',  ( 15.00000000000000000, 4.999999999999998200, 500.0000000000000000 ) ) ;
#177 = COORDINATED_UNIVERSAL_TIME_OFFSET ( 9, 0, .AHEAD. ) ;
#178 = APPLICATION_CONTEXT ( 'configuration controlled 3d designs of mechanical parts and assemblies' ) ;
#179 = PERSON_AND_ORGANIZATION_ROLE ( 'design_owner' ) ;
#180 = DIRECTION ( 'NONE',  ( -1.734723475976807100E-016, 1.000000000000000000, -0.0000000000000000000 ) ) ;
#181 = CARTESIAN_POINT ( 'NONE',  ( 15.00000000000000000, 4.999999999999998200, -500.0000000000000000 ) ) ;
#182 = EDGE_CURVE ( 'NONE', #233, #89, #189, .T. ) ;
#183 = PLANE ( 'NONE',  #127 ) ;
#184 = ORIENTED_EDGE ( 'NONE', *, *, #225, .T. ) ;
#185 = MECHANICAL_CONTEXT ( 'NONE', #199, 'mechanical' ) ;
#186 = APPROVAL_PERSON_ORGANIZATION ( #18, #9, #125 ) ;
#187 = CARTESIAN_POINT ( 'NONE',  ( -14.99999999999999800, -5.000000000000001800, -500.0000000000000000 ) ) ;
#188 = DIRECTION ( 'NONE',  ( 0.0000000000000000000, -0.0000000000000000000, 1.000000000000000000 ) ) ;
#189 = LINE ( 'NONE', #38, #25 ) ;
#190 = APPROVAL_PERSON_ORGANIZATION ( #174, #70, #166 ) ;
#191 = DIRECTION ( 'NONE',  ( 0.0000000000000000000, 1.000000000000000000, 0.0000000000000000000 ) ) ;
#192 = CARTESIAN_POINT ( 'NONE',  ( 0.0000000000000000000, 0.0000000000000000000, 500.0000000000000000 ) ) ;
#193 = PERSON_AND_ORGANIZATION ( #146, #51 ) ;
#194 = EDGE_CURVE ( 'NONE', #233, #98, #37, .T. ) ;
#195 = ORIENTED_EDGE ( 'NONE', *, *, #194, .F. ) ;
#196 = LINE ( 'NONE', #106, #235 ) ;
#197 = ORIENTED_EDGE ( 'NONE', *, *, #92, .F. ) ;
#198 = DIRECTION ( 'NONE',  ( 1.000000000000000000, 0.0000000000000000000, 0.0000000000000000000 ) ) ;
#199 = APPLICATION_CONTEXT ( 'configuration controlled 3d designs of mechanical parts and assemblies' ) ;
#200 = FACE_OUTER_BOUND ( 'NONE', #40, .T. ) ;
#201 = ORIENTED_EDGE ( 'NONE', *, *, #214, .F. ) ;
#202 = DIRECTION ( 'NONE',  ( 1.000000000000000000, 0.0000000000000000000, 0.0000000000000000000 ) ) ;
#203 = PLANE ( 'NONE',  #108 ) ;
#204 = ORIENTED_EDGE ( 'NONE', *, *, #205, .F. ) ;
#205 = EDGE_CURVE ( 'NONE', #89, #130, #171, .T. ) ;
#206 = DIRECTION ( 'NONE',  ( 0.0000000000000000000, 0.0000000000000000000, 1.000000000000000000 ) ) ;
#207 = CARTESIAN_POINT ( 'NONE',  ( -15.00000000000000000, 4.999999999999998200, -500.0000000000000000 ) ) ;
#208 = CARTESIAN_POINT ( 'NONE',  ( 15.00000000000000200, -5.000000000000001800, 500.0000000000000000 ) ) ;
#209 = FACE_OUTER_BOUND ( 'NONE', #113, .T. ) ;
#210 = DIRECTION ( 'NONE',  ( -0.0000000000000000000, -0.0000000000000000000, -1.000000000000000000 ) ) ;
#211 = DIRECTION ( 'NONE',  ( -1.000000000000000000, -0.0000000000000000000, -0.0000000000000000000 ) ) ;
#212 = VECTOR ( 'NONE', #228, 1000.000000000000000 ) ;
#213 = VERTEX_POINT ( 'NONE', #39 ) ;
#214 = EDGE_CURVE ( 'NONE', #89, #78, #150, .T. ) ;
#215 = VECTOR ( 'NONE', #163, 1000.000000000000000 ) ;
#216 = CALENDAR_DATE ( 2017, 2, 11 ) ;
#217 = ORIENTED_EDGE ( 'NONE', *, *, #214, .T. ) ;
#218 = ORIENTED_EDGE ( 'NONE', *, *, #225, .F. ) ;
#219 = DIRECTION ( 'NONE',  ( -0.0000000000000000000, 0.0000000000000000000, 1.000000000000000000 ) ) ;
#220 = FACE_OUTER_BOUND ( 'NONE', #93, .T. ) ;
#221 = CARTESIAN_POINT ( 'NONE',  ( -14.99999999999999800, -5.000000000000001800, 500.0000000000000000 ) ) ;
#222 = CARTESIAN_POINT ( 'NONE',  ( -14.99999999999999800, -5.000000000000001800, 500.0000000000000000 ) ) ;
#223 = ORIENTED_EDGE ( 'NONE', *, *, #96, .F. ) ;
#224 = VECTOR ( 'NONE', #211, 1000.000000000000000 ) ;
#225 = EDGE_CURVE ( 'NONE', #130, #151, #115, .T. ) ;
#226 = LINE ( 'NONE', #90, #142 ) ;
#227 = APPROVAL_DATE_TIME ( #73, #9 ) ;
#228 = DIRECTION ( 'NONE',  ( 1.000000000000000000, 0.0000000000000000000, 0.0000000000000000000 ) ) ;
#229 = PRODUCT_DEFINITION_SHAPE ( 'NONE', 'NONE',  #62 ) ;
#230 = LINE ( 'NONE', #165, #44 ) ;
#231 = ORIENTED_EDGE ( 'NONE', *, *, #182, .T. ) ;
#232 = EDGE_CURVE ( 'NONE', #213, #233, #46, .T. ) ;
#233 = VERTEX_POINT ( 'NONE', #107 ) ;
#234 = LOCAL_TIME ( 13, 51, 37.00000000000000000, #56 ) ;
#235 = VECTOR ( 'NONE', #60, 1000.000000000000000 ) ;
#236 = LOCAL_TIME ( 13, 51, 37.00000000000000000, #97 ) ;
#237 = CARTESIAN_POINT ( 'NONE',  ( -14.99999999999999800, -5.000000000000001800, 500.0000000000000000 ) ) ;
ENDSEC;
END-ISO-10303-21;
