ISO-10303-21;
HEADER;
FILE_DESCRIPTION (( 'STEP AP203' ),
    '1' );
FILE_NAME ('sone3D.STEP',
    '2017-11-02T04:51:21',
    ( '' ),
    ( '' ),
    'SwSTEP 2.0',
    'SolidWorks 2014',
    '' );
FILE_SCHEMA (( 'CONFIG_CONTROL_DESIGN' ));
ENDSEC;

DATA;
#1 = CC_DESIGN_SECURITY_CLASSIFICATION ( #24, ( #44 ) ) ;
#2 = CARTESIAN_POINT ( 'NONE',  ( 0.0000000000000000000, 0.0000000000000000000, -500.0000000000000000 ) ) ;
#3 = LINE ( 'NONE', #99, #212 ) ;
#4 = LINE ( 'NONE', #116, #174 ) ;
#5 = ORGANIZATION ( 'UNSPECIFIED', 'UNSPECIFIED', '' ) ;
#6 = CC_DESIGN_APPROVAL ( #9, ( #24 ) ) ;
#7 = VERTEX_POINT ( 'NONE', #41 ) ;
#8 = EDGE_LOOP ( 'NONE', ( #222, #45, #224, #48 ) ) ;
#9 = APPROVAL ( #74, 'UNSPECIFIED' ) ;
#10 = LINE ( 'NONE', #215, #122 ) ;
#11 = CC_DESIGN_DATE_AND_TIME_ASSIGNMENT ( #156, #237, ( #24 ) ) ;
#12 = DIRECTION ( 'NONE',  ( 1.000000000000000000, -1.734723475976807100E-016, 0.0000000000000000000 ) ) ;
#13 = CARTESIAN_POINT ( 'NONE',  ( -12.49999999999999800, 5.000000000000000900, 500.0000000000000000 ) ) ;
#14 = PLANE ( 'NONE',  #117 ) ;
#15 = FACE_OUTER_BOUND ( 'NONE', #8, .T. ) ;
#16 = VERTEX_POINT ( 'NONE', #223 ) ;
#17 = CARTESIAN_POINT ( 'NONE',  ( -12.50000000000000000, -4.999999999999999100, 500.0000000000000000 ) ) ;
#18 = DIRECTION ( 'NONE',  ( 1.000000000000000000, 0.0000000000000000000, 0.0000000000000000000 ) ) ;
#19 = SHAPE_DEFINITION_REPRESENTATION ( #170, #40 ) ;
#20 = CARTESIAN_POINT ( 'NONE',  ( -12.49999999999999800, 5.000000000000000900, -500.0000000000000000 ) ) ;
#21 = DIRECTION ( 'NONE',  ( -0.0000000000000000000, -0.0000000000000000000, -1.000000000000000000 ) ) ;
#22 = DIRECTION ( 'NONE',  ( -0.0000000000000000000, 0.0000000000000000000, 1.000000000000000000 ) ) ;
#23 = CC_DESIGN_PERSON_AND_ORGANIZATION_ASSIGNMENT ( #229, #197, ( #24 ) ) ;
#24 = SECURITY_CLASSIFICATION ( '', '', #199 ) ;
#25 = APPROVAL_DATE_TIME ( #128, #85 ) ;
#26 = CALENDAR_DATE ( 2017, 2, 11 ) ;
#27 = CC_DESIGN_PERSON_AND_ORGANIZATION_ASSIGNMENT ( #61, #88, ( #44 ) ) ;
#28 = FACE_OUTER_BOUND ( 'NONE', #54, .T. ) ;
#29 = PERSON_AND_ORGANIZATION ( #155, #5 ) ;
#30 = APPROVAL_DATE_TIME ( #124, #42 ) ;
#31 = EDGE_LOOP ( 'NONE', ( #79, #158, #236, #233 ) ) ;
#32 = CARTESIAN_POINT ( 'NONE',  ( 12.50000000000000400, 5.000000000000000900, 500.0000000000000000 ) ) ;
#33 = CARTESIAN_POINT ( 'NONE',  ( -12.49999999999999800, 5.000000000000000900, 500.0000000000000000 ) ) ;
#34 = CALENDAR_DATE ( 2017, 2, 11 ) ;
#35 = PLANE ( 'NONE',  #114 ) ;
#36 = CC_DESIGN_PERSON_AND_ORGANIZATION_ASSIGNMENT ( #162, #166, ( #44 ) ) ;
#37 = APPROVAL_PERSON_ORGANIZATION ( #75, #9, #228 ) ;
#38 = CC_DESIGN_APPROVAL ( #42, ( #44 ) ) ;
#39 = VERTEX_POINT ( 'NONE', #20 ) ;
#40 = ADVANCED_BREP_SHAPE_REPRESENTATION ( 'sone3D', ( #191, #72 ), #119 ) ;
#41 = CARTESIAN_POINT ( 'NONE',  ( 12.50000000000000400, 5.000000000000000900, -500.0000000000000000 ) ) ;
#42 = APPROVAL ( #179, 'UNSPECIFIED' ) ;
#43 = LINE ( 'NONE', #120, #138 ) ;
#44 = PRODUCT_DEFINITION_FORMATION_WITH_SPECIFIED_SOURCE ( 'ANY', '', #111, .NOT_KNOWN. ) ;
#45 = ORIENTED_EDGE ( 'NONE', *, *, #171, .F. ) ;
#46 = VERTEX_POINT ( 'NONE', #78 ) ;
#47 = CC_DESIGN_DATE_AND_TIME_ASSIGNMENT ( #195, #151, ( #83 ) ) ;
#48 = ORIENTED_EDGE ( 'NONE', *, *, #201, .T. ) ;
#49 = PLANE ( 'NONE',  #64 ) ;
#50 = DIRECTION ( 'NONE',  ( 0.0000000000000000000, 0.0000000000000000000, 1.000000000000000000 ) ) ;
#51 = DIRECTION ( 'NONE',  ( -0.0000000000000000000, 0.0000000000000000000, 1.000000000000000000 ) ) ;
#52 = CALENDAR_DATE ( 2017, 2, 11 ) ;
#53 = AXIS2_PLACEMENT_3D ( 'NONE', #175, #102, #104 ) ;
#54 = EDGE_LOOP ( 'NONE', ( #173, #188, #167, #118 ) ) ;
#55 =( NAMED_UNIT ( * ) PLANE_ANGLE_UNIT ( ) SI_UNIT ( $, .RADIAN. ) );
#56 = PERSON_AND_ORGANIZATION_ROLE ( 'design_owner' ) ;
#57 = EDGE_LOOP ( 'NONE', ( #196, #193, #172, #108 ) ) ;
#58 = DIRECTION ( 'NONE',  ( 3.469446951953614200E-016, 1.000000000000000000, -0.0000000000000000000 ) ) ;
#59 = EDGE_CURVE ( 'NONE', #90, #7, #123, .T. ) ;
#60 = ORIENTED_EDGE ( 'NONE', *, *, #157, .F. ) ;
#61 = PERSON_AND_ORGANIZATION ( #155, #5 ) ;
#62 = LOCAL_TIME ( 13, 51, 21.00000000000000000, #209 ) ;
#63 = ORIENTED_EDGE ( 'NONE', *, *, #201, .F. ) ;
#64 = AXIS2_PLACEMENT_3D ( 'NONE', #220, #51, #113 ) ;
#65 = ADVANCED_FACE ( 'NONE', ( #28 ), #35, .F. ) ;
#66 = AXIS2_PLACEMENT_3D ( 'NONE', #70, #189, #190 ) ;
#67 = PERSON_AND_ORGANIZATION ( #155, #5 ) ;
#68 = LINE ( 'NONE', #17, #145 ) ;
#69 = EDGE_CURVE ( 'NONE', #140, #39, #177, .T. ) ;
#70 = CARTESIAN_POINT ( 'NONE',  ( -12.50000000000000000, -4.999999999999999100, 500.0000000000000000 ) ) ;
#71 = VECTOR ( 'NONE', #21, 1000.000000000000000 ) ;
#72 = AXIS2_PLACEMENT_3D ( 'NONE', #163, #50, #81 ) ;
#73 = COORDINATED_UNIVERSAL_TIME_OFFSET ( 9, 0, .AHEAD. ) ;
#74 = APPROVAL_STATUS ( 'not_yet_approved' ) ;
#75 = PERSON_AND_ORGANIZATION ( #155, #5 ) ;
#76 = CC_DESIGN_PERSON_AND_ORGANIZATION_ASSIGNMENT ( #96, #56, ( #111 ) ) ;
#77 = ORIENTED_EDGE ( 'NONE', *, *, #59, .T. ) ;
#78 = CARTESIAN_POINT ( 'NONE',  ( 12.50000000000000400, 5.000000000000000900, 500.0000000000000000 ) ) ;
#79 = ORIENTED_EDGE ( 'NONE', *, *, #157, .T. ) ;
#80 = ORIENTED_EDGE ( 'NONE', *, *, #69, .T. ) ;
#81 = DIRECTION ( 'NONE',  ( 1.000000000000000000, 0.0000000000000000000, 0.0000000000000000000 ) ) ;
#82 = VERTEX_POINT ( 'NONE', #139 ) ;
#83 = PRODUCT_DEFINITION ( 'UNKNOWN', '', #44, #105 ) ;
#84 = VECTOR ( 'NONE', #218, 1000.000000000000000 ) ;
#85 = APPROVAL ( #213, 'UNSPECIFIED' ) ;
#86 = COORDINATED_UNIVERSAL_TIME_OFFSET ( 9, 0, .AHEAD. ) ;
#87 = CARTESIAN_POINT ( 'NONE',  ( -12.50000000000000000, -4.999999999999999100, 500.0000000000000000 ) ) ;
#88 = PERSON_AND_ORGANIZATION_ROLE ( 'design_supplier' ) ;
#89 = CARTESIAN_POINT ( 'NONE',  ( -12.49999999999999800, 5.000000000000000900, 500.0000000000000000 ) ) ;
#90 = VERTEX_POINT ( 'NONE', #103 ) ;
#91 = CARTESIAN_POINT ( 'NONE',  ( -12.50000000000000000, -4.999999999999999100, 500.0000000000000000 ) ) ;
#92 = FACE_OUTER_BOUND ( 'NONE', #205, .T. ) ;
#93 = APPLICATION_CONTEXT ( 'configuration controlled 3d designs of mechanical parts and assemblies' ) ;
#94 = CALENDAR_DATE ( 2017, 2, 11 ) ;
#95 = DIRECTION ( 'NONE',  ( -0.0000000000000000000, -0.0000000000000000000, -1.000000000000000000 ) ) ;
#96 = PERSON_AND_ORGANIZATION ( #155, #5 ) ;
#97 = CARTESIAN_POINT ( 'NONE',  ( -12.49999999999999800, 5.000000000000000900, -500.0000000000000000 ) ) ;
#98 = CC_DESIGN_PERSON_AND_ORGANIZATION_ASSIGNMENT ( #200, #146, ( #83 ) ) ;
#99 = CARTESIAN_POINT ( 'NONE',  ( -12.49999999999999800, 5.000000000000000900, -500.0000000000000000 ) ) ;
#100 = LOCAL_TIME ( 13, 51, 21.00000000000000000, #73 ) ;
#101 = VECTOR ( 'NONE', #221, 1000.000000000000000 ) ;
#102 = DIRECTION ( 'NONE',  ( -1.000000000000000000, 3.469446951953614200E-016, 0.0000000000000000000 ) ) ;
#103 = CARTESIAN_POINT ( 'NONE',  ( 12.50000000000000000, -4.999999999999999100, -500.0000000000000000 ) ) ;
#104 = DIRECTION ( 'NONE',  ( -3.469446951953614200E-016, -1.000000000000000000, 0.0000000000000000000 ) ) ;
#105 = DESIGN_CONTEXT ( 'detailed design', #152, 'design' ) ;
#106 = ADVANCED_FACE ( 'NONE', ( #112 ), #14, .F. ) ;
#107 = VECTOR ( 'NONE', #58, 1000.000000000000000 ) ;
#108 = ORIENTED_EDGE ( 'NONE', *, *, #194, .T. ) ;
#109 = CC_DESIGN_APPROVAL ( #85, ( #83 ) ) ;
#110 = ADVANCED_FACE ( 'NONE', ( #208 ), #49, .T. ) ;
#111 = PRODUCT ( 'sone3D', 'sone3D', '', ( #235 ) ) ;
#112 = FACE_OUTER_BOUND ( 'NONE', #232, .T. ) ;
#113 = DIRECTION ( 'NONE',  ( 1.000000000000000000, 0.0000000000000000000, 0.0000000000000000000 ) ) ;
#114 = AXIS2_PLACEMENT_3D ( 'NONE', #2, #22, #18 ) ;
#115 = DIRECTION ( 'NONE',  ( -1.000000000000000000, -0.0000000000000000000, -0.0000000000000000000 ) ) ;
#116 = CARTESIAN_POINT ( 'NONE',  ( -12.50000000000000000, -4.999999999999999100, -500.0000000000000000 ) ) ;
#117 = AXIS2_PLACEMENT_3D ( 'NONE', #13, #12, #154 ) ;
#118 = ORIENTED_EDGE ( 'NONE', *, *, #150, .F. ) ;
#119 =( GEOMETRIC_REPRESENTATION_CONTEXT ( 3 ) GLOBAL_UNCERTAINTY_ASSIGNED_CONTEXT ( ( #230 ) ) GLOBAL_UNIT_ASSIGNED_CONTEXT ( ( #147, #55, #134 ) ) REPRESENTATION_CONTEXT ( 'NONE', 'WORKASPACE' ) );
#120 = CARTESIAN_POINT ( 'NONE',  ( -12.49999999999999800, 5.000000000000000900, 500.0000000000000000 ) ) ;
#121 = VECTOR ( 'NONE', #203, 1000.000000000000000 ) ;
#122 = VECTOR ( 'NONE', #168, 1000.000000000000000 ) ;
#123 = LINE ( 'NONE', #204, #107 ) ;
#124 = DATE_AND_TIME ( #26, #100 ) ;
#125 = LINE ( 'NONE', #136, #227 ) ;
#126 = LOCAL_TIME ( 13, 51, 21.00000000000000000, #187 ) ;
#127 = PRODUCT_RELATED_PRODUCT_CATEGORY ( 'detail', '', ( #111 ) ) ;
#128 = DATE_AND_TIME ( #52, #143 ) ;
#129 = DIRECTION ( 'NONE',  ( 3.469446951953614200E-016, 1.000000000000000000, -0.0000000000000000000 ) ) ;
#130 = APPROVAL_DATE_TIME ( #149, #9 ) ;
#131 = AXIS2_PLACEMENT_3D ( 'NONE', #231, #182, #186 ) ;
#132 = APPLICATION_PROTOCOL_DEFINITION ( 'international standard', 'config_control_design', 1994, #93 ) ;
#133 = ORIENTED_EDGE ( 'NONE', *, *, #194, .F. ) ;
#134 =( NAMED_UNIT ( * ) SI_UNIT ( $, .STERADIAN. ) SOLID_ANGLE_UNIT ( ) );
#135 = PLANE ( 'NONE',  #66 ) ;
#136 = CARTESIAN_POINT ( 'NONE',  ( -12.49999999999999800, 5.000000000000000900, 500.0000000000000000 ) ) ;
#137 = DIRECTION ( 'NONE',  ( -1.734723475976807100E-016, -1.000000000000000000, 0.0000000000000000000 ) ) ;
#138 = VECTOR ( 'NONE', #137, 1000.000000000000000 ) ;
#139 = CARTESIAN_POINT ( 'NONE',  ( 12.50000000000000000, -4.999999999999999100, 500.0000000000000000 ) ) ;
#140 = VERTEX_POINT ( 'NONE', #89 ) ;
#141 = ADVANCED_FACE ( 'NONE', ( #15 ), #135, .F. ) ;
#142 = ADVANCED_FACE ( 'NONE', ( #92 ), #202, .F. ) ;
#143 = LOCAL_TIME ( 13, 51, 21.00000000000000000, #216 ) ;
#144 = ORIENTED_EDGE ( 'NONE', *, *, #217, .T. ) ;
#145 = VECTOR ( 'NONE', #95, 1000.000000000000000 ) ;
#146 = PERSON_AND_ORGANIZATION_ROLE ( 'creator' ) ;
#147 =( LENGTH_UNIT ( ) NAMED_UNIT ( * ) SI_UNIT ( .MILLI., .METRE. ) );
#148 = LINE ( 'NONE', #181, #121 ) ;
#149 = DATE_AND_TIME ( #176, #184 ) ;
#150 = EDGE_CURVE ( 'NONE', #16, #90, #4, .T. ) ;
#151 = DATE_TIME_ROLE ( 'creation_date' ) ;
#152 = APPLICATION_CONTEXT ( 'configuration controlled 3d designs of mechanical parts and assemblies' ) ;
#153 = LINE ( 'NONE', #97, #84 ) ;
#154 = DIRECTION ( 'NONE',  ( 1.734723475976807100E-016, 1.000000000000000000, 0.0000000000000000000 ) ) ;
#155 = PERSON ( 'UNSPECIFIED', 'UNSPECIFIED', 'UNSPECIFIED', ('UNSPECIFIED'), ('UNSPECIFIED'), ('UNSPECIFIED') ) ;
#156 = DATE_AND_TIME ( #94, #62 ) ;
#157 = EDGE_CURVE ( 'NONE', #140, #192, #43, .T. ) ;
#158 = ORIENTED_EDGE ( 'NONE', *, *, #210, .T. ) ;
#159 = CLOSED_SHELL ( 'NONE', ( #106, #141, #142, #165, #110, #65 ) ) ;
#160 = VECTOR ( 'NONE', #129, 1000.000000000000000 ) ;
#161 = APPROVAL_PERSON_ORGANIZATION ( #67, #85, #219 ) ;
#162 = PERSON_AND_ORGANIZATION ( #155, #5 ) ;
#163 = CARTESIAN_POINT ( 'NONE',  ( 0.0000000000000000000, 0.0000000000000000000, 0.0000000000000000000 ) ) ;
#164 = FACE_OUTER_BOUND ( 'NONE', #57, .T. ) ;
#165 = ADVANCED_FACE ( 'NONE', ( #164 ), #169, .F. ) ;
#166 = PERSON_AND_ORGANIZATION_ROLE ( 'creator' ) ;
#167 = ORIENTED_EDGE ( 'NONE', *, *, #59, .F. ) ;
#168 = DIRECTION ( 'NONE',  ( -0.0000000000000000000, -0.0000000000000000000, -1.000000000000000000 ) ) ;
#169 = PLANE ( 'NONE',  #131 ) ;
#170 = PRODUCT_DEFINITION_SHAPE ( 'NONE', 'NONE',  #83 ) ;
#171 = EDGE_CURVE ( 'NONE', #82, #90, #10, .T. ) ;
#172 = ORIENTED_EDGE ( 'NONE', *, *, #180, .F. ) ;
#173 = ORIENTED_EDGE ( 'NONE', *, *, #217, .F. ) ;
#174 = VECTOR ( 'NONE', #234, 1000.000000000000000 ) ;
#175 = CARTESIAN_POINT ( 'NONE',  ( 12.50000000000000400, 5.000000000000000900, 500.0000000000000000 ) ) ;
#176 = CALENDAR_DATE ( 2017, 2, 11 ) ;
#177 = LINE ( 'NONE', #33, #71 ) ;
#178 = APPROVAL_ROLE ( '' ) ;
#179 = APPROVAL_STATUS ( 'not_yet_approved' ) ;
#180 = EDGE_CURVE ( 'NONE', #46, #140, #125, .T. ) ;
#181 = CARTESIAN_POINT ( 'NONE',  ( 12.50000000000000400, 5.000000000000000900, 500.0000000000000000 ) ) ;
#182 = DIRECTION ( 'NONE',  ( 0.0000000000000000000, -1.000000000000000000, 0.0000000000000000000 ) ) ;
#183 = LINE ( 'NONE', #32, #160 ) ;
#184 = LOCAL_TIME ( 13, 51, 21.00000000000000000, #86 ) ;
#185 = APPLICATION_PROTOCOL_DEFINITION ( 'international standard', 'config_control_design', 1994, #152 ) ;
#186 = DIRECTION ( 'NONE',  ( 0.0000000000000000000, -0.0000000000000000000, -1.000000000000000000 ) ) ;
#187 = COORDINATED_UNIVERSAL_TIME_OFFSET ( 9, 0, .AHEAD. ) ;
#188 = ORIENTED_EDGE ( 'NONE', *, *, #207, .F. ) ;
#189 = DIRECTION ( 'NONE',  ( 0.0000000000000000000, 1.000000000000000000, 0.0000000000000000000 ) ) ;
#190 = DIRECTION ( 'NONE',  ( 0.0000000000000000000, -0.0000000000000000000, 1.000000000000000000 ) ) ;
#191 = MANIFOLD_SOLID_BREP ( 'ÎÞ½ - µoµ1', #159 ) ;
#192 = VERTEX_POINT ( 'NONE', #91 ) ;
#193 = ORIENTED_EDGE ( 'NONE', *, *, #69, .F. ) ;
#194 = EDGE_CURVE ( 'NONE', #46, #7, #148, .T. ) ;
#195 = DATE_AND_TIME ( #34, #126 ) ;
#196 = ORIENTED_EDGE ( 'NONE', *, *, #207, .T. ) ;
#197 = PERSON_AND_ORGANIZATION_ROLE ( 'classification_officer' ) ;
#198 = DIRECTION ( 'NONE',  ( -1.000000000000000000, -0.0000000000000000000, -0.0000000000000000000 ) ) ;
#199 = SECURITY_CLASSIFICATION_LEVEL ( 'unclassified' ) ;
#200 = PERSON_AND_ORGANIZATION ( #155, #5 ) ;
#201 = EDGE_CURVE ( 'NONE', #192, #16, #68, .T. ) ;
#202 = PLANE ( 'NONE',  #53 ) ;
#203 = DIRECTION ( 'NONE',  ( -0.0000000000000000000, -0.0000000000000000000, -1.000000000000000000 ) ) ;
#204 = CARTESIAN_POINT ( 'NONE',  ( 12.50000000000000400, 5.000000000000000900, -500.0000000000000000 ) ) ;
#205 = EDGE_LOOP ( 'NONE', ( #77, #133, #225, #214 ) ) ;
#206 = APPROVAL_PERSON_ORGANIZATION ( #29, #42, #178 ) ;
#207 = EDGE_CURVE ( 'NONE', #7, #39, #3, .T. ) ;
#208 = FACE_OUTER_BOUND ( 'NONE', #31, .T. ) ;
#209 = COORDINATED_UNIVERSAL_TIME_OFFSET ( 9, 0, .AHEAD. ) ;
#210 = EDGE_CURVE ( 'NONE', #192, #82, #211, .T. ) ;
#211 = LINE ( 'NONE', #87, #101 ) ;
#212 = VECTOR ( 'NONE', #198, 1000.000000000000000 ) ;
#213 = APPROVAL_STATUS ( 'not_yet_approved' ) ;
#214 = ORIENTED_EDGE ( 'NONE', *, *, #171, .T. ) ;
#215 = CARTESIAN_POINT ( 'NONE',  ( 12.50000000000000000, -4.999999999999999100, 500.0000000000000000 ) ) ;
#216 = COORDINATED_UNIVERSAL_TIME_OFFSET ( 9, 0, .AHEAD. ) ;
#217 = EDGE_CURVE ( 'NONE', #39, #16, #153, .T. ) ;
#218 = DIRECTION ( 'NONE',  ( -1.734723475976807100E-016, -1.000000000000000000, 0.0000000000000000000 ) ) ;
#219 = APPROVAL_ROLE ( '' ) ;
#220 = CARTESIAN_POINT ( 'NONE',  ( 0.0000000000000000000, 0.0000000000000000000, 500.0000000000000000 ) ) ;
#221 = DIRECTION ( 'NONE',  ( 1.000000000000000000, 0.0000000000000000000, 0.0000000000000000000 ) ) ;
#222 = ORIENTED_EDGE ( 'NONE', *, *, #150, .T. ) ;
#223 = CARTESIAN_POINT ( 'NONE',  ( -12.50000000000000000, -4.999999999999999100, -500.0000000000000000 ) ) ;
#224 = ORIENTED_EDGE ( 'NONE', *, *, #210, .F. ) ;
#225 = ORIENTED_EDGE ( 'NONE', *, *, #226, .F. ) ;
#226 = EDGE_CURVE ( 'NONE', #82, #46, #183, .T. ) ;
#227 = VECTOR ( 'NONE', #115, 1000.000000000000000 ) ;
#228 = APPROVAL_ROLE ( '' ) ;
#229 = PERSON_AND_ORGANIZATION ( #155, #5 ) ;
#230 = UNCERTAINTY_MEASURE_WITH_UNIT (LENGTH_MEASURE( 1.000000000000000100E-005 ), #147, 'distance_accuracy_value', 'NONE');
#231 = CARTESIAN_POINT ( 'NONE',  ( -12.49999999999999800, 5.000000000000000900, 500.0000000000000000 ) ) ;
#232 = EDGE_LOOP ( 'NONE', ( #144, #63, #60, #80 ) ) ;
#233 = ORIENTED_EDGE ( 'NONE', *, *, #180, .T. ) ;
#234 = DIRECTION ( 'NONE',  ( 1.000000000000000000, 0.0000000000000000000, 0.0000000000000000000 ) ) ;
#235 = MECHANICAL_CONTEXT ( 'NONE', #93, 'mechanical' ) ;
#236 = ORIENTED_EDGE ( 'NONE', *, *, #226, .T. ) ;
#237 = DATE_TIME_ROLE ( 'classification_date' ) ;
ENDSEC;
END-ISO-10303-21;
