ISO-10303-21;
HEADER;
FILE_DESCRIPTION (( 'STEP AP203' ),
    '1' );
FILE_NAME ('sone3D.STEP',
    '2017-11-02T04:50:23',
    ( '' ),
    ( '' ),
    'SwSTEP 2.0',
    'SolidWorks 2014',
    '' );
FILE_SCHEMA (( 'CONFIG_CONTROL_DESIGN' ));
ENDSEC;

DATA;
#1 = DIRECTION ( 'NONE',  ( 1.000000000000000000, 0.0000000000000000000, 0.0000000000000000000 ) ) ;
#2 = PLANE ( 'NONE',  #124 ) ;
#3 = SECURITY_CLASSIFICATION_LEVEL ( 'unclassified' ) ;
#4 = CC_DESIGN_SECURITY_CLASSIFICATION ( #34, ( #59 ) ) ;
#5 = LINE ( 'NONE', #89, #29 ) ;
#6 = APPLICATION_CONTEXT ( 'configuration controlled 3d designs of mechanical parts and assemblies' ) ;
#7 = APPLICATION_PROTOCOL_DEFINITION ( 'international standard', 'config_control_design', 1994, #121 ) ;
#8 = EDGE_LOOP ( 'NONE', ( #106, #197, #186, #140 ) ) ;
#9 = VERTEX_POINT ( 'NONE', #176 ) ;
#10 = ORIENTED_EDGE ( 'NONE', *, *, #96, .T. ) ;
#11 = CC_DESIGN_APPROVAL ( #19, ( #34 ) ) ;
#12 = VERTEX_POINT ( 'NONE', #70 ) ;
#13 = ORIENTED_EDGE ( 'NONE', *, *, #201, .F. ) ;
#14 = EDGE_CURVE ( 'NONE', #169, #212, #21, .T. ) ;
#15 = PERSON_AND_ORGANIZATION ( #204, #233 ) ;
#16 = DIRECTION ( 'NONE',  ( -0.0000000000000000000, 0.0000000000000000000, 1.000000000000000000 ) ) ;
#17 = VERTEX_POINT ( 'NONE', #198 ) ;
#18 = DIRECTION ( 'NONE',  ( 1.000000000000000000, 0.0000000000000000000, 0.0000000000000000000 ) ) ;
#19 = APPROVAL ( #53, 'UNSPECIFIED' ) ;
#20 = APPLICATION_PROTOCOL_DEFINITION ( 'international standard', 'config_control_design', 1994, #6 ) ;
#21 = LINE ( 'NONE', #192, #144 ) ;
#22 =( NAMED_UNIT ( * ) SI_UNIT ( $, .STERADIAN. ) SOLID_ANGLE_UNIT ( ) );
#23 =( NAMED_UNIT ( * ) PLANE_ANGLE_UNIT ( ) SI_UNIT ( $, .RADIAN. ) );
#24 = COORDINATED_UNIVERSAL_TIME_OFFSET ( 9, 0, .AHEAD. ) ;
#25 =( LENGTH_UNIT ( ) NAMED_UNIT ( * ) SI_UNIT ( .MILLI., .METRE. ) );
#26 = APPROVAL_PERSON_ORGANIZATION ( #15, #57, #75 ) ;
#27 = CC_DESIGN_DATE_AND_TIME_ASSIGNMENT ( #69, #44, ( #34 ) ) ;
#28 = PERSON_AND_ORGANIZATION ( #204, #233 ) ;
#29 = VECTOR ( 'NONE', #90, 1000.000000000000000 ) ;
#30 = APPROVAL_ROLE ( '' ) ;
#31 = UNCERTAINTY_MEASURE_WITH_UNIT (LENGTH_MEASURE( 1.000000000000000100E-005 ), #25, 'distance_accuracy_value', 'NONE');
#32 = CC_DESIGN_PERSON_AND_ORGANIZATION_ASSIGNMENT ( #137, #51, ( #34 ) ) ;
#33 = DATE_AND_TIME ( #158, #187 ) ;
#34 = SECURITY_CLASSIFICATION ( '', '', #3 ) ;
#35 = EDGE_LOOP ( 'NONE', ( #122, #200, #117, #224 ) ) ;
#36 = CALENDAR_DATE ( 2017, 2, 11 ) ;
#37 = ORIENTED_EDGE ( 'NONE', *, *, #209, .F. ) ;
#38 = CARTESIAN_POINT ( 'NONE',  ( -9.999999999999998200, -5.000000000000002700, 500.0000000000000000 ) ) ;
#39 = CC_DESIGN_PERSON_AND_ORGANIZATION_ASSIGNMENT ( #41, #221, ( #59 ) ) ;
#40 = CARTESIAN_POINT ( 'NONE',  ( 0.0000000000000000000, 0.0000000000000000000, 0.0000000000000000000 ) ) ;
#41 = PERSON_AND_ORGANIZATION ( #204, #233 ) ;
#42 = DIRECTION ( 'NONE',  ( 0.0000000000000000000, 0.0000000000000000000, 1.000000000000000000 ) ) ;
#43 = CC_DESIGN_PERSON_AND_ORGANIZATION_ASSIGNMENT ( #231, #168, ( #59 ) ) ;
#44 = DATE_TIME_ROLE ( 'classification_date' ) ;
#45 = CARTESIAN_POINT ( 'NONE',  ( 10.00000000000000000, 4.999999999999997300, 500.0000000000000000 ) ) ;
#46 = DIRECTION ( 'NONE',  ( -0.0000000000000000000, -0.0000000000000000000, -1.000000000000000000 ) ) ;
#47 = DIRECTION ( 'NONE',  ( 1.734723475976807100E-016, -1.000000000000000000, 0.0000000000000000000 ) ) ;
#48 = CC_DESIGN_APPROVAL ( #57, ( #59 ) ) ;
#49 = CARTESIAN_POINT ( 'NONE',  ( 10.00000000000000000, 4.999999999999997300, 500.0000000000000000 ) ) ;
#50 = ORIENTED_EDGE ( 'NONE', *, *, #66, .F. ) ;
#51 = PERSON_AND_ORGANIZATION_ROLE ( 'classification_officer' ) ;
#52 = PLANE ( 'NONE',  #146 ) ;
#53 = APPROVAL_STATUS ( 'not_yet_approved' ) ;
#54 = DATE_TIME_ROLE ( 'creation_date' ) ;
#55 = VECTOR ( 'NONE', #68, 1000.000000000000000 ) ;
#56 = LOCAL_TIME ( 13, 50, 23.00000000000000000, #125 ) ;
#57 = APPROVAL ( #170, 'UNSPECIFIED' ) ;
#58 = LINE ( 'NONE', #92, #99 ) ;
#59 = PRODUCT_DEFINITION_FORMATION_WITH_SPECIFIED_SOURCE ( 'ANY', '', #104, .NOT_KNOWN. ) ;
#60 = CLOSED_SHELL ( 'NONE', ( #81, #64, #213, #141, #193, #128 ) ) ;
#61 = CC_DESIGN_DATE_AND_TIME_ASSIGNMENT ( #101, #54, ( #107 ) ) ;
#62 = LINE ( 'NONE', #45, #172 ) ;
#63 = APPROVAL_DATE_TIME ( #184, #109 ) ;
#64 = ADVANCED_FACE ( 'NONE', ( #230 ), #237, .F. ) ;
#65 = ORIENTED_EDGE ( 'NONE', *, *, #14, .F. ) ;
#66 = EDGE_CURVE ( 'NONE', #151, #17, #58, .T. ) ;
#67 = DIRECTION ( 'NONE',  ( 0.0000000000000000000, 1.000000000000000000, 0.0000000000000000000 ) ) ;
#68 = DIRECTION ( 'NONE',  ( 1.734723475976807100E-016, -1.000000000000000000, 0.0000000000000000000 ) ) ;
#69 = DATE_AND_TIME ( #227, #228 ) ;
#70 = CARTESIAN_POINT ( 'NONE',  ( -10.00000000000000000, 4.999999999999997300, 500.0000000000000000 ) ) ;
#71 = CARTESIAN_POINT ( 'NONE',  ( -9.999999999999998200, -5.000000000000002700, -500.0000000000000000 ) ) ;
#72 = CARTESIAN_POINT ( 'NONE',  ( -10.00000000000000000, 4.999999999999997300, -500.0000000000000000 ) ) ;
#73 = APPROVAL_ROLE ( '' ) ;
#74 =( GEOMETRIC_REPRESENTATION_CONTEXT ( 3 ) GLOBAL_UNCERTAINTY_ASSIGNED_CONTEXT ( ( #31 ) ) GLOBAL_UNIT_ASSIGNED_CONTEXT ( ( #25, #23, #22 ) ) REPRESENTATION_CONTEXT ( 'NONE', 'WORKASPACE' ) );
#75 = APPROVAL_ROLE ( '' ) ;
#76 = AXIS2_PLACEMENT_3D ( 'NONE', #93, #16, #18 ) ;
#77 = APPROVAL_PERSON_ORGANIZATION ( #108, #19, #73 ) ;
#78 = VECTOR ( 'NONE', #105, 1000.000000000000000 ) ;
#79 = EDGE_LOOP ( 'NONE', ( #10, #155, #139, #182 ) ) ;
#80 = ADVANCED_BREP_SHAPE_REPRESENTATION ( 'sone3D', ( #219, #88 ), #74 ) ;
#81 = ADVANCED_FACE ( 'NONE', ( #180 ), #2, .F. ) ;
#82 = CALENDAR_DATE ( 2017, 2, 11 ) ;
#83 = CARTESIAN_POINT ( 'NONE',  ( -10.00000000000000000, 4.999999999999997300, 500.0000000000000000 ) ) ;
#84 = CARTESIAN_POINT ( 'NONE',  ( 10.00000000000000000, 4.999999999999997300, 500.0000000000000000 ) ) ;
#85 = LINE ( 'NONE', #217, #185 ) ;
#86 = AXIS2_PLACEMENT_3D ( 'NONE', #133, #120, #119 ) ;
#87 = DIRECTION ( 'NONE',  ( -0.0000000000000000000, -0.0000000000000000000, -1.000000000000000000 ) ) ;
#88 = AXIS2_PLACEMENT_3D ( 'NONE', #40, #42, #1 ) ;
#89 = CARTESIAN_POINT ( 'NONE',  ( -9.999999999999998200, -5.000000000000002700, -500.0000000000000000 ) ) ;
#90 = DIRECTION ( 'NONE',  ( 1.000000000000000000, 0.0000000000000000000, 0.0000000000000000000 ) ) ;
#91 = VECTOR ( 'NONE', #145, 1000.000000000000000 ) ;
#92 = CARTESIAN_POINT ( 'NONE',  ( 10.00000000000000000, 4.999999999999997300, -500.0000000000000000 ) ) ;
#93 = CARTESIAN_POINT ( 'NONE',  ( 0.0000000000000000000, 0.0000000000000000000, 500.0000000000000000 ) ) ;
#94 = VECTOR ( 'NONE', #164, 1000.000000000000000 ) ;
#95 = APPROVAL_PERSON_ORGANIZATION ( #28, #109, #30 ) ;
#96 = EDGE_CURVE ( 'NONE', #17, #136, #127, .T. ) ;
#97 = AXIS2_PLACEMENT_3D ( 'NONE', #163, #162, #153 ) ;
#98 = LINE ( 'NONE', #83, #161 ) ;
#99 = VECTOR ( 'NONE', #150, 1000.000000000000000 ) ;
#100 = ORIENTED_EDGE ( 'NONE', *, *, #159, .F. ) ;
#101 = DATE_AND_TIME ( #191, #174 ) ;
#102 = CARTESIAN_POINT ( 'NONE',  ( 10.00000000000000200, -5.000000000000002700, 500.0000000000000000 ) ) ;
#103 = CC_DESIGN_PERSON_AND_ORGANIZATION_ASSIGNMENT ( #211, #167, ( #104 ) ) ;
#104 = PRODUCT ( 'sone3D', 'sone3D', '', ( #222 ) ) ;
#105 = DIRECTION ( 'NONE',  ( -0.0000000000000000000, -0.0000000000000000000, -1.000000000000000000 ) ) ;
#106 = ORIENTED_EDGE ( 'NONE', *, *, #181, .T. ) ;
#107 = PRODUCT_DEFINITION ( 'UNKNOWN', '', #59, #134 ) ;
#108 = PERSON_AND_ORGANIZATION ( #204, #233 ) ;
#109 = APPROVAL ( #135, 'UNSPECIFIED' ) ;
#110 = FACE_OUTER_BOUND ( 'NONE', #35, .T. ) ;
#111 = LINE ( 'NONE', #147, #234 ) ;
#112 = COORDINATED_UNIVERSAL_TIME_OFFSET ( 9, 0, .AHEAD. ) ;
#113 = DIRECTION ( 'NONE',  ( 1.000000000000000000, 0.0000000000000000000, 0.0000000000000000000 ) ) ;
#114 = CC_DESIGN_PERSON_AND_ORGANIZATION_ASSIGNMENT ( #129, #154, ( #107 ) ) ;
#115 = EDGE_LOOP ( 'NONE', ( #37, #131, #50, #13 ) ) ;
#116 = CARTESIAN_POINT ( 'NONE',  ( -10.00000000000000000, 4.999999999999997300, 500.0000000000000000 ) ) ;
#117 = ORIENTED_EDGE ( 'NONE', *, *, #138, .F. ) ;
#118 = CC_DESIGN_APPROVAL ( #109, ( #107 ) ) ;
#119 = DIRECTION ( 'NONE',  ( 0.0000000000000000000, -0.0000000000000000000, -1.000000000000000000 ) ) ;
#120 = DIRECTION ( 'NONE',  ( 0.0000000000000000000, -1.000000000000000000, 0.0000000000000000000 ) ) ;
#121 = APPLICATION_CONTEXT ( 'configuration controlled 3d designs of mechanical parts and assemblies' ) ;
#122 = ORIENTED_EDGE ( 'NONE', *, *, #66, .T. ) ;
#123 = FACE_OUTER_BOUND ( 'NONE', #115, .T. ) ;
#124 = AXIS2_PLACEMENT_3D ( 'NONE', #205, #202, #199 ) ;
#125 = COORDINATED_UNIVERSAL_TIME_OFFSET ( 9, 0, .AHEAD. ) ;
#126 = FACE_OUTER_BOUND ( 'NONE', #8, .T. ) ;
#127 = LINE ( 'NONE', #165, #94 ) ;
#128 = ADVANCED_FACE ( 'NONE', ( #123 ), #183, .F. ) ;
#129 = PERSON_AND_ORGANIZATION ( #204, #233 ) ;
#130 = EDGE_CURVE ( 'NONE', #169, #9, #85, .T. ) ;
#131 = ORIENTED_EDGE ( 'NONE', *, *, #96, .F. ) ;
#132 = PLANE ( 'NONE',  #86 ) ;
#133 = CARTESIAN_POINT ( 'NONE',  ( -10.00000000000000000, 4.999999999999997300, 500.0000000000000000 ) ) ;
#134 = DESIGN_CONTEXT ( 'detailed design', #121, 'design' ) ;
#135 = APPROVAL_STATUS ( 'not_yet_approved' ) ;
#136 = VERTEX_POINT ( 'NONE', #215 ) ;
#137 = PERSON_AND_ORGANIZATION ( #204, #233 ) ;
#138 = EDGE_CURVE ( 'NONE', #9, #207, #111, .T. ) ;
#139 = ORIENTED_EDGE ( 'NONE', *, *, #189, .F. ) ;
#140 = ORIENTED_EDGE ( 'NONE', *, *, #189, .T. ) ;
#141 = ADVANCED_FACE ( 'NONE', ( #188 ), #132, .F. ) ;
#142 = PRODUCT_RELATED_PRODUCT_CATEGORY ( 'detail', '', ( #104 ) ) ;
#143 = VECTOR ( 'NONE', #194, 1000.000000000000000 ) ;
#144 = VECTOR ( 'NONE', #87, 1000.000000000000000 ) ;
#145 = DIRECTION ( 'NONE',  ( -0.0000000000000000000, -0.0000000000000000000, -1.000000000000000000 ) ) ;
#146 = AXIS2_PLACEMENT_3D ( 'NONE', #49, #152, #47 ) ;
#147 = CARTESIAN_POINT ( 'NONE',  ( 10.00000000000000000, 4.999999999999997300, 500.0000000000000000 ) ) ;
#148 = ORIENTED_EDGE ( 'NONE', *, *, #201, .T. ) ;
#149 = APPROVAL_DATE_TIME ( #206, #19 ) ;
#150 = DIRECTION ( 'NONE',  ( -1.734723475976807100E-016, 1.000000000000000000, -0.0000000000000000000 ) ) ;
#151 = VERTEX_POINT ( 'NONE', #178 ) ;
#152 = DIRECTION ( 'NONE',  ( -1.000000000000000000, -1.734723475976807100E-016, 0.0000000000000000000 ) ) ;
#153 = DIRECTION ( 'NONE',  ( 1.000000000000000000, 0.0000000000000000000, 0.0000000000000000000 ) ) ;
#154 = PERSON_AND_ORGANIZATION_ROLE ( 'creator' ) ;
#155 = ORIENTED_EDGE ( 'NONE', *, *, #156, .F. ) ;
#156 = EDGE_CURVE ( 'NONE', #12, #136, #210, .T. ) ;
#157 = ORIENTED_EDGE ( 'NONE', *, *, #130, .F. ) ;
#158 = CALENDAR_DATE ( 2017, 2, 11 ) ;
#159 = EDGE_CURVE ( 'NONE', #9, #151, #195, .T. ) ;
#160 = ORIENTED_EDGE ( 'NONE', *, *, #181, .F. ) ;
#161 = VECTOR ( 'NONE', #196, 1000.000000000000000 ) ;
#162 = DIRECTION ( 'NONE',  ( -0.0000000000000000000, 0.0000000000000000000, 1.000000000000000000 ) ) ;
#163 = CARTESIAN_POINT ( 'NONE',  ( 0.0000000000000000000, 0.0000000000000000000, -500.0000000000000000 ) ) ;
#164 = DIRECTION ( 'NONE',  ( -1.000000000000000000, -0.0000000000000000000, -0.0000000000000000000 ) ) ;
#165 = CARTESIAN_POINT ( 'NONE',  ( -10.00000000000000000, 4.999999999999997300, -500.0000000000000000 ) ) ;
#166 = LINE ( 'NONE', #235, #143 ) ;
#167 = PERSON_AND_ORGANIZATION_ROLE ( 'design_owner' ) ;
#168 = PERSON_AND_ORGANIZATION_ROLE ( 'creator' ) ;
#169 = VERTEX_POINT ( 'NONE', #38 ) ;
#170 = APPROVAL_STATUS ( 'not_yet_approved' ) ;
#171 = COORDINATED_UNIVERSAL_TIME_OFFSET ( 9, 0, .AHEAD. ) ;
#172 = VECTOR ( 'NONE', #46, 1000.000000000000000 ) ;
#173 = LINE ( 'NONE', #72, #55 ) ;
#174 = LOCAL_TIME ( 13, 50, 23.00000000000000000, #177 ) ;
#175 = EDGE_LOOP ( 'NONE', ( #148, #100, #157, #225 ) ) ;
#176 = CARTESIAN_POINT ( 'NONE',  ( 10.00000000000000200, -5.000000000000002700, 500.0000000000000000 ) ) ;
#177 = COORDINATED_UNIVERSAL_TIME_OFFSET ( 9, 0, .AHEAD. ) ;
#178 = CARTESIAN_POINT ( 'NONE',  ( 10.00000000000000200, -5.000000000000002700, -500.0000000000000000 ) ) ;
#179 = DIRECTION ( 'NONE',  ( -1.734723475976807100E-016, 1.000000000000000000, -0.0000000000000000000 ) ) ;
#180 = FACE_OUTER_BOUND ( 'NONE', #208, .T. ) ;
#181 = EDGE_CURVE ( 'NONE', #12, #169, #98, .T. ) ;
#182 = ORIENTED_EDGE ( 'NONE', *, *, #220, .T. ) ;
#183 = PLANE ( 'NONE',  #97 ) ;
#184 = DATE_AND_TIME ( #36, #190 ) ;
#185 = VECTOR ( 'NONE', #113, 1000.000000000000000 ) ;
#186 = ORIENTED_EDGE ( 'NONE', *, *, #138, .T. ) ;
#187 = LOCAL_TIME ( 13, 50, 23.00000000000000000, #112 ) ;
#188 = FACE_OUTER_BOUND ( 'NONE', #79, .T. ) ;
#189 = EDGE_CURVE ( 'NONE', #207, #12, #166, .T. ) ;
#190 = LOCAL_TIME ( 13, 50, 23.00000000000000000, #24 ) ;
#191 = CALENDAR_DATE ( 2017, 2, 11 ) ;
#192 = CARTESIAN_POINT ( 'NONE',  ( -9.999999999999998200, -5.000000000000002700, 500.0000000000000000 ) ) ;
#193 = ADVANCED_FACE ( 'NONE', ( #126 ), #232, .T. ) ;
#194 = DIRECTION ( 'NONE',  ( -1.000000000000000000, -0.0000000000000000000, -0.0000000000000000000 ) ) ;
#195 = LINE ( 'NONE', #102, #78 ) ;
#196 = DIRECTION ( 'NONE',  ( 1.734723475976807100E-016, -1.000000000000000000, 0.0000000000000000000 ) ) ;
#197 = ORIENTED_EDGE ( 'NONE', *, *, #130, .T. ) ;
#198 = CARTESIAN_POINT ( 'NONE',  ( 10.00000000000000000, 4.999999999999997300, -500.0000000000000000 ) ) ;
#199 = DIRECTION ( 'NONE',  ( -1.734723475976807100E-016, 1.000000000000000000, 0.0000000000000000000 ) ) ;
#200 = ORIENTED_EDGE ( 'NONE', *, *, #220, .F. ) ;
#201 = EDGE_CURVE ( 'NONE', #212, #151, #5, .T. ) ;
#202 = DIRECTION ( 'NONE',  ( 1.000000000000000000, 1.734723475976807100E-016, -0.0000000000000000000 ) ) ;
#203 = APPROVAL_DATE_TIME ( #33, #57 ) ;
#204 = PERSON ( 'UNSPECIFIED', 'UNSPECIFIED', 'UNSPECIFIED', ('UNSPECIFIED'), ('UNSPECIFIED'), ('UNSPECIFIED') ) ;
#205 = CARTESIAN_POINT ( 'NONE',  ( -10.00000000000000000, 4.999999999999997300, 500.0000000000000000 ) ) ;
#206 = DATE_AND_TIME ( #82, #56 ) ;
#207 = VERTEX_POINT ( 'NONE', #84 ) ;
#208 = EDGE_LOOP ( 'NONE', ( #214, #65, #160, #236 ) ) ;
#209 = EDGE_CURVE ( 'NONE', #136, #212, #173, .T. ) ;
#210 = LINE ( 'NONE', #116, #91 ) ;
#211 = PERSON_AND_ORGANIZATION ( #204, #233 ) ;
#212 = VERTEX_POINT ( 'NONE', #71 ) ;
#213 = ADVANCED_FACE ( 'NONE', ( #110 ), #52, .F. ) ;
#214 = ORIENTED_EDGE ( 'NONE', *, *, #209, .T. ) ;
#215 = CARTESIAN_POINT ( 'NONE',  ( -10.00000000000000000, 4.999999999999997300, -500.0000000000000000 ) ) ;
#216 = CARTESIAN_POINT ( 'NONE',  ( -9.999999999999998200, -5.000000000000002700, 500.0000000000000000 ) ) ;
#217 = CARTESIAN_POINT ( 'NONE',  ( -9.999999999999998200, -5.000000000000002700, 500.0000000000000000 ) ) ;
#218 = SHAPE_DEFINITION_REPRESENTATION ( #223, #80 ) ;
#219 = MANIFOLD_SOLID_BREP ( 'ÎÞ½ - µoµ1', #60 ) ;
#220 = EDGE_CURVE ( 'NONE', #207, #17, #62, .T. ) ;
#221 = PERSON_AND_ORGANIZATION_ROLE ( 'design_supplier' ) ;
#222 = MECHANICAL_CONTEXT ( 'NONE', #6, 'mechanical' ) ;
#223 = PRODUCT_DEFINITION_SHAPE ( 'NONE', 'NONE',  #107 ) ;
#224 = ORIENTED_EDGE ( 'NONE', *, *, #159, .T. ) ;
#225 = ORIENTED_EDGE ( 'NONE', *, *, #14, .T. ) ;
#226 = DIRECTION ( 'NONE',  ( 0.0000000000000000000, -0.0000000000000000000, 1.000000000000000000 ) ) ;
#227 = CALENDAR_DATE ( 2017, 2, 11 ) ;
#228 = LOCAL_TIME ( 13, 50, 23.00000000000000000, #171 ) ;
#229 = AXIS2_PLACEMENT_3D ( 'NONE', #216, #67, #226 ) ;
#230 = FACE_OUTER_BOUND ( 'NONE', #175, .T. ) ;
#231 = PERSON_AND_ORGANIZATION ( #204, #233 ) ;
#232 = PLANE ( 'NONE',  #76 ) ;
#233 = ORGANIZATION ( 'UNSPECIFIED', 'UNSPECIFIED', '' ) ;
#234 = VECTOR ( 'NONE', #179, 1000.000000000000000 ) ;
#235 = CARTESIAN_POINT ( 'NONE',  ( -10.00000000000000000, 4.999999999999997300, 500.0000000000000000 ) ) ;
#236 = ORIENTED_EDGE ( 'NONE', *, *, #156, .T. ) ;
#237 = PLANE ( 'NONE',  #229 ) ;
ENDSEC;
END-ISO-10303-21;
