ISO-10303-21;
HEADER;
FILE_DESCRIPTION (( 'STEP AP203' ),
    '1' );
FILE_NAME ('sone3D.STEP',
    '2017-11-02T04:49:55',
    ( '' ),
    ( '' ),
    'SwSTEP 2.0',
    'SolidWorks 2014',
    '' );
FILE_SCHEMA (( 'CONFIG_CONTROL_DESIGN' ));
ENDSEC;

DATA;
#1 = CARTESIAN_POINT ( 'NONE',  ( -7.499999999999997300, -5.000000000000000000, 500.0000000000000000 ) ) ;
#2 = CARTESIAN_POINT ( 'NONE',  ( 0.0000000000000000000, 0.0000000000000000000, 500.0000000000000000 ) ) ;
#3 = AXIS2_PLACEMENT_3D ( 'NONE', #119, #25, #157 ) ;
#4 = PERSON_AND_ORGANIZATION ( #139, #33 ) ;
#5 = DIRECTION ( 'NONE',  ( -0.0000000000000000000, 0.0000000000000000000, 1.000000000000000000 ) ) ;
#6 = CARTESIAN_POINT ( 'NONE',  ( -7.499999999999999100, 5.000000000000000000, 500.0000000000000000 ) ) ;
#7 = PRODUCT_DEFINITION_SHAPE ( 'NONE', 'NONE',  #40 ) ;
#8 = CARTESIAN_POINT ( 'NONE',  ( 0.0000000000000000000, 0.0000000000000000000, -500.0000000000000000 ) ) ;
#9 = DIRECTION ( 'NONE',  ( 0.0000000000000000000, 0.0000000000000000000, 1.000000000000000000 ) ) ;
#10 = ORIENTED_EDGE ( 'NONE', *, *, #95, .F. ) ;
#11 = PERSON_AND_ORGANIZATION ( #139, #33 ) ;
#12 = PERSON_AND_ORGANIZATION_ROLE ( 'design_supplier' ) ;
#13 = PERSON_AND_ORGANIZATION ( #139, #33 ) ;
#14 = AXIS2_PLACEMENT_3D ( 'NONE', #123, #9, #141 ) ;
#15 = ORIENTED_EDGE ( 'NONE', *, *, #156, .T. ) ;
#16 = CLOSED_SHELL ( 'NONE', ( #152, #99, #82, #169, #21, #236 ) ) ;
#17 = DIRECTION ( 'NONE',  ( -0.0000000000000000000, -0.0000000000000000000, -1.000000000000000000 ) ) ;
#18 = DIRECTION ( 'NONE',  ( 1.000000000000000000, 0.0000000000000000000, 0.0000000000000000000 ) ) ;
#19 = ORIENTED_EDGE ( 'NONE', *, *, #126, .T. ) ;
#20 = LINE ( 'NONE', #135, #72 ) ;
#21 = ADVANCED_FACE ( 'NONE', ( #183 ), #23, .T. ) ;
#22 = DIRECTION ( 'NONE',  ( 1.000000000000000000, 0.0000000000000000000, 0.0000000000000000000 ) ) ;
#23 = PLANE ( 'NONE',  #211 ) ;
#24 = PLANE ( 'NONE',  #31 ) ;
#25 = DIRECTION ( 'NONE',  ( 0.0000000000000000000, -1.000000000000000000, 0.0000000000000000000 ) ) ;
#26 = CC_DESIGN_PERSON_AND_ORGANIZATION_ASSIGNMENT ( #11, #159, ( #122 ) ) ;
#27 = ORIENTED_EDGE ( 'NONE', *, *, #162, .T. ) ;
#28 = LINE ( 'NONE', #76, #75 ) ;
#29 = DIRECTION ( 'NONE',  ( 1.000000000000000000, 0.0000000000000000000, 0.0000000000000000000 ) ) ;
#30 = MECHANICAL_CONTEXT ( 'NONE', #226, 'mechanical' ) ;
#31 = AXIS2_PLACEMENT_3D ( 'NONE', #190, #154, #44 ) ;
#32 = PERSON_AND_ORGANIZATION_ROLE ( 'classification_officer' ) ;
#33 = ORGANIZATION ( 'UNSPECIFIED', 'UNSPECIFIED', '' ) ;
#34 = AXIS2_PLACEMENT_3D ( 'NONE', #46, #176, #231 ) ;
#35 = ORIENTED_EDGE ( 'NONE', *, *, #156, .F. ) ;
#36 = APPROVAL_PERSON_ORGANIZATION ( #130, #115, #227 ) ;
#37 = ORIENTED_EDGE ( 'NONE', *, *, #126, .F. ) ;
#38 = CARTESIAN_POINT ( 'NONE',  ( 7.500000000000001800, -5.000000000000000000, -500.0000000000000000 ) ) ;
#39 = ORIENTED_EDGE ( 'NONE', *, *, #129, .T. ) ;
#40 = PRODUCT_DEFINITION ( 'UNKNOWN', '', #106, #219 ) ;
#41 = LOCAL_TIME ( 13, 49, 55.00000000000000000, #98 ) ;
#42 = VECTOR ( 'NONE', #205, 1000.000000000000000 ) ;
#43 = CARTESIAN_POINT ( 'NONE',  ( 7.500000000000000900, 5.000000000000000000, -500.0000000000000000 ) ) ;
#44 = DIRECTION ( 'NONE',  ( -1.734723475976807100E-016, 1.000000000000000000, 0.0000000000000000000 ) ) ;
#45 = ORIENTED_EDGE ( 'NONE', *, *, #129, .F. ) ;
#46 = CARTESIAN_POINT ( 'NONE',  ( -7.499999999999997300, -5.000000000000000000, 500.0000000000000000 ) ) ;
#47 = DIRECTION ( 'NONE',  ( -8.673617379884035500E-017, 1.000000000000000000, -0.0000000000000000000 ) ) ;
#48 = PLANE ( 'NONE',  #34 ) ;
#49 = APPLICATION_CONTEXT ( 'configuration controlled 3d designs of mechanical parts and assemblies' ) ;
#50 = VECTOR ( 'NONE', #84, 1000.000000000000000 ) ;
#51 = APPROVAL_STATUS ( 'not_yet_approved' ) ;
#52 = AXIS2_PLACEMENT_3D ( 'NONE', #192, #104, #225 ) ;
#53 = VECTOR ( 'NONE', #85, 1000.000000000000000 ) ;
#54 = EDGE_LOOP ( 'NONE', ( #96, #61, #88, #45 ) ) ;
#55 = APPROVAL ( #73, 'UNSPECIFIED' ) ;
#56 = LOCAL_TIME ( 13, 49, 55.00000000000000000, #158 ) ;
#57 = VECTOR ( 'NONE', #22, 1000.000000000000000 ) ;
#58 = LOCAL_TIME ( 13, 49, 55.00000000000000000, #220 ) ;
#59 = CARTESIAN_POINT ( 'NONE',  ( -7.499999999999999100, 5.000000000000000000, 500.0000000000000000 ) ) ;
#60 = EDGE_CURVE ( 'NONE', #102, #216, #107, .T. ) ;
#61 = ORIENTED_EDGE ( 'NONE', *, *, #60, .F. ) ;
#62 = CARTESIAN_POINT ( 'NONE',  ( 7.500000000000001800, -5.000000000000000000, 500.0000000000000000 ) ) ;
#63 = DATE_AND_TIME ( #66, #41 ) ;
#64 = CARTESIAN_POINT ( 'NONE',  ( -7.499999999999997300, -5.000000000000000000, -500.0000000000000000 ) ) ;
#65 = PLANE ( 'NONE',  #52 ) ;
#66 = CALENDAR_DATE ( 2017, 2, 11 ) ;
#67 = ADVANCED_BREP_SHAPE_REPRESENTATION ( 'sone3D', ( #148, #14 ), #170 ) ;
#68 = CARTESIAN_POINT ( 'NONE',  ( -7.499999999999997300, -5.000000000000000000, -500.0000000000000000 ) ) ;
#69 = CC_DESIGN_APPROVAL ( #55, ( #40 ) ) ;
#70 =( NAMED_UNIT ( * ) PLANE_ANGLE_UNIT ( ) SI_UNIT ( $, .RADIAN. ) );
#71 = ORIENTED_EDGE ( 'NONE', *, *, #198, .F. ) ;
#72 = VECTOR ( 'NONE', #223, 1000.000000000000000 ) ;
#73 = APPROVAL_STATUS ( 'not_yet_approved' ) ;
#74 = ORIENTED_EDGE ( 'NONE', *, *, #117, .T. ) ;
#75 = VECTOR ( 'NONE', #171, 1000.000000000000000 ) ;
#76 = CARTESIAN_POINT ( 'NONE',  ( -7.499999999999999100, 5.000000000000000000, -500.0000000000000000 ) ) ;
#77 = EDGE_CURVE ( 'NONE', #212, #102, #127, .T. ) ;
#78 = VERTEX_POINT ( 'NONE', #38 ) ;
#79 = ORIENTED_EDGE ( 'NONE', *, *, #143, .T. ) ;
#80 = CC_DESIGN_PERSON_AND_ORGANIZATION_ASSIGNMENT ( #4, #90, ( #40 ) ) ;
#81 = PERSON_AND_ORGANIZATION ( #139, #33 ) ;
#82 = ADVANCED_FACE ( 'NONE', ( #191 ), #65, .F. ) ;
#83 = LINE ( 'NONE', #221, #146 ) ;
#84 = DIRECTION ( 'NONE',  ( -1.000000000000000000, -0.0000000000000000000, -0.0000000000000000000 ) ) ;
#85 = DIRECTION ( 'NONE',  ( -0.0000000000000000000, -0.0000000000000000000, -1.000000000000000000 ) ) ;
#86 = CARTESIAN_POINT ( 'NONE',  ( -7.499999999999999100, 5.000000000000000000, 500.0000000000000000 ) ) ;
#87 = CARTESIAN_POINT ( 'NONE',  ( -7.499999999999997300, -5.000000000000000000, 500.0000000000000000 ) ) ;
#88 = ORIENTED_EDGE ( 'NONE', *, *, #147, .F. ) ;
#89 = APPROVAL_DATE_TIME ( #177, #115 ) ;
#90 = PERSON_AND_ORGANIZATION_ROLE ( 'creator' ) ;
#91 = APPROVAL_DATE_TIME ( #114, #55 ) ;
#92 = ORIENTED_EDGE ( 'NONE', *, *, #162, .F. ) ;
#93 = CC_DESIGN_DATE_AND_TIME_ASSIGNMENT ( #118, #210, ( #40 ) ) ;
#94 = CALENDAR_DATE ( 2017, 2, 11 ) ;
#95 = EDGE_CURVE ( 'NONE', #212, #109, #199, .T. ) ;
#96 = ORIENTED_EDGE ( 'NONE', *, *, #133, .F. ) ;
#97 = EDGE_LOOP ( 'NONE', ( #39, #37, #228, #79 ) ) ;
#98 = COORDINATED_UNIVERSAL_TIME_OFFSET ( 9, 0, .AHEAD. ) ;
#99 = ADVANCED_FACE ( 'NONE', ( #167 ), #48, .F. ) ;
#100 = CALENDAR_DATE ( 2017, 2, 11 ) ;
#101 = LOCAL_TIME ( 13, 49, 55.00000000000000000, #224 ) ;
#102 = VERTEX_POINT ( 'NONE', #137 ) ;
#103 = PLANE ( 'NONE',  #3 ) ;
#104 = DIRECTION ( 'NONE',  ( -1.000000000000000000, -8.673617379884035500E-017, 0.0000000000000000000 ) ) ;
#105 = CARTESIAN_POINT ( 'NONE',  ( -7.499999999999999100, 5.000000000000000000, -500.0000000000000000 ) ) ;
#106 = PRODUCT_DEFINITION_FORMATION_WITH_SPECIFIED_SOURCE ( 'ANY', '', #122, .NOT_KNOWN. ) ;
#107 = LINE ( 'NONE', #155, #50 ) ;
#108 = APPROVAL_STATUS ( 'not_yet_approved' ) ;
#109 = VERTEX_POINT ( 'NONE', #59 ) ;
#110 = UNCERTAINTY_MEASURE_WITH_UNIT (LENGTH_MEASURE( 1.000000000000000100E-005 ), #178, 'distance_accuracy_value', 'NONE');
#111 = VECTOR ( 'NONE', #120, 1000.000000000000000 ) ;
#112 = LINE ( 'NONE', #87, #215 ) ;
#113 = DIRECTION ( 'NONE',  ( 1.000000000000000000, 0.0000000000000000000, 0.0000000000000000000 ) ) ;
#114 = DATE_AND_TIME ( #100, #56 ) ;
#115 = APPROVAL ( #108, 'UNSPECIFIED' ) ;
#116 = PERSON_AND_ORGANIZATION ( #139, #33 ) ;
#117 = EDGE_CURVE ( 'NONE', #229, #166, #112, .T. ) ;
#118 = DATE_AND_TIME ( #197, #101 ) ;
#119 = CARTESIAN_POINT ( 'NONE',  ( -7.499999999999999100, 5.000000000000000000, 500.0000000000000000 ) ) ;
#120 = DIRECTION ( 'NONE',  ( -1.000000000000000000, -0.0000000000000000000, -0.0000000000000000000 ) ) ;
#121 = PLANE ( 'NONE',  #201 ) ;
#122 = PRODUCT ( 'sone3D', 'sone3D', '', ( #30 ) ) ;
#123 = CARTESIAN_POINT ( 'NONE',  ( 0.0000000000000000000, 0.0000000000000000000, 0.0000000000000000000 ) ) ;
#124 = PERSON_AND_ORGANIZATION_ROLE ( 'creator' ) ;
#125 = ORIENTED_EDGE ( 'NONE', *, *, #77, .T. ) ;
#126 = EDGE_CURVE ( 'NONE', #166, #78, #83, .T. ) ;
#127 = LINE ( 'NONE', #173, #145 ) ;
#128 = CC_DESIGN_APPROVAL ( #115, ( #106 ) ) ;
#129 = EDGE_CURVE ( 'NONE', #203, #78, #234, .T. ) ;
#130 = PERSON_AND_ORGANIZATION ( #139, #33 ) ;
#131 = LOCAL_TIME ( 13, 49, 55.00000000000000000, #149 ) ;
#132 = EDGE_LOOP ( 'NONE', ( #175, #235, #71, #19 ) ) ;
#133 = EDGE_CURVE ( 'NONE', #216, #203, #28, .T. ) ;
#134 = DIRECTION ( 'NONE',  ( -0.0000000000000000000, -0.0000000000000000000, -1.000000000000000000 ) ) ;
#135 = CARTESIAN_POINT ( 'NONE',  ( -7.499999999999999100, 5.000000000000000000, 500.0000000000000000 ) ) ;
#136 = FACE_OUTER_BOUND ( 'NONE', #54, .T. ) ;
#137 = CARTESIAN_POINT ( 'NONE',  ( 7.500000000000000900, 5.000000000000000000, -500.0000000000000000 ) ) ;
#138 = DIRECTION ( 'NONE',  ( -0.0000000000000000000, 0.0000000000000000000, 1.000000000000000000 ) ) ;
#139 = PERSON ( 'UNSPECIFIED', 'UNSPECIFIED', 'UNSPECIFIED', ('UNSPECIFIED'), ('UNSPECIFIED'), ('UNSPECIFIED') ) ;
#140 = CC_DESIGN_PERSON_AND_ORGANIZATION_ASSIGNMENT ( #13, #124, ( #106 ) ) ;
#141 = DIRECTION ( 'NONE',  ( 1.000000000000000000, 0.0000000000000000000, 0.0000000000000000000 ) ) ;
#142 = SECURITY_CLASSIFICATION_LEVEL ( 'unclassified' ) ;
#143 = EDGE_CURVE ( 'NONE', #229, #203, #188, .T. ) ;
#144 = ORIENTED_EDGE ( 'NONE', *, *, #95, .T. ) ;
#145 = VECTOR ( 'NONE', #17, 1000.000000000000000 ) ;
#146 = VECTOR ( 'NONE', #134, 1000.000000000000000 ) ;
#147 = EDGE_CURVE ( 'NONE', #78, #102, #207, .T. ) ;
#148 = MANIFOLD_SOLID_BREP ( 'ÎÞ½ - µoµ1', #16 ) ;
#149 = COORDINATED_UNIVERSAL_TIME_OFFSET ( 9, 0, .AHEAD. ) ;
#150 = CC_DESIGN_PERSON_AND_ORGANIZATION_ASSIGNMENT ( #213, #12, ( #106 ) ) ;
#151 = ORIENTED_EDGE ( 'NONE', *, *, #60, .T. ) ;
#152 = ADVANCED_FACE ( 'NONE', ( #196 ), #24, .F. ) ;
#153 = VECTOR ( 'NONE', #222, 1000.000000000000000 ) ;
#154 = DIRECTION ( 'NONE',  ( 1.000000000000000000, 1.734723475976807100E-016, -0.0000000000000000000 ) ) ;
#155 = CARTESIAN_POINT ( 'NONE',  ( -7.499999999999999100, 5.000000000000000000, -500.0000000000000000 ) ) ;
#156 = EDGE_CURVE ( 'NONE', #109, #216, #217, .T. ) ;
#157 = DIRECTION ( 'NONE',  ( 0.0000000000000000000, -0.0000000000000000000, -1.000000000000000000 ) ) ;
#158 = COORDINATED_UNIVERSAL_TIME_OFFSET ( 9, 0, .AHEAD. ) ;
#159 = PERSON_AND_ORGANIZATION_ROLE ( 'design_owner' ) ;
#160 = DATE_TIME_ROLE ( 'classification_date' ) ;
#161 = PERSON_AND_ORGANIZATION ( #139, #33 ) ;
#162 = EDGE_CURVE ( 'NONE', #109, #229, #20, .T. ) ;
#163 = VECTOR ( 'NONE', #47, 1000.000000000000000 ) ;
#164 = SHAPE_DEFINITION_REPRESENTATION ( #7, #67 ) ;
#165 = SECURITY_CLASSIFICATION ( '', '', #142 ) ;
#166 = VERTEX_POINT ( 'NONE', #62 ) ;
#167 = FACE_OUTER_BOUND ( 'NONE', #97, .T. ) ;
#168 = ORIENTED_EDGE ( 'NONE', *, *, #133, .T. ) ;
#169 = ADVANCED_FACE ( 'NONE', ( #204 ), #103, .F. ) ;
#170 =( GEOMETRIC_REPRESENTATION_CONTEXT ( 3 ) GLOBAL_UNCERTAINTY_ASSIGNED_CONTEXT ( ( #110 ) ) GLOBAL_UNIT_ASSIGNED_CONTEXT ( ( #178, #70, #194 ) ) REPRESENTATION_CONTEXT ( 'NONE', 'WORKASPACE' ) );
#171 = DIRECTION ( 'NONE',  ( 1.734723475976807100E-016, -1.000000000000000000, 0.0000000000000000000 ) ) ;
#172 = CARTESIAN_POINT ( 'NONE',  ( -7.499999999999997300, -5.000000000000000000, 500.0000000000000000 ) ) ;
#173 = CARTESIAN_POINT ( 'NONE',  ( 7.500000000000000900, 5.000000000000000000, 500.0000000000000000 ) ) ;
#174 = CARTESIAN_POINT ( 'NONE',  ( 7.500000000000000900, 5.000000000000000000, 500.0000000000000000 ) ) ;
#175 = ORIENTED_EDGE ( 'NONE', *, *, #147, .T. ) ;
#176 = DIRECTION ( 'NONE',  ( 0.0000000000000000000, 1.000000000000000000, 0.0000000000000000000 ) ) ;
#177 = DATE_AND_TIME ( #182, #58 ) ;
#178 =( LENGTH_UNIT ( ) NAMED_UNIT ( * ) SI_UNIT ( .MILLI., .METRE. ) );
#179 = CC_DESIGN_PERSON_AND_ORGANIZATION_ASSIGNMENT ( #161, #32, ( #165 ) ) ;
#180 = APPLICATION_PROTOCOL_DEFINITION ( 'international standard', 'config_control_design', 1994, #49 ) ;
#181 = APPROVAL_ROLE ( '' ) ;
#182 = CALENDAR_DATE ( 2017, 2, 11 ) ;
#183 = FACE_OUTER_BOUND ( 'NONE', #232, .T. ) ;
#184 = LINE ( 'NONE', #174, #163 ) ;
#185 = APPROVAL_DATE_TIME ( #189, #200 ) ;
#186 = ORIENTED_EDGE ( 'NONE', *, *, #143, .F. ) ;
#187 = CC_DESIGN_DATE_AND_TIME_ASSIGNMENT ( #63, #160, ( #165 ) ) ;
#188 = LINE ( 'NONE', #1, #53 ) ;
#189 = DATE_AND_TIME ( #94, #131 ) ;
#190 = CARTESIAN_POINT ( 'NONE',  ( -7.499999999999999100, 5.000000000000000000, 500.0000000000000000 ) ) ;
#191 = FACE_OUTER_BOUND ( 'NONE', #132, .T. ) ;
#192 = CARTESIAN_POINT ( 'NONE',  ( 7.500000000000000900, 5.000000000000000000, 500.0000000000000000 ) ) ;
#193 = CARTESIAN_POINT ( 'NONE',  ( 7.500000000000000900, 5.000000000000000000, 500.0000000000000000 ) ) ;
#194 =( NAMED_UNIT ( * ) SI_UNIT ( $, .STERADIAN. ) SOLID_ANGLE_UNIT ( ) );
#195 = APPROVAL_ROLE ( '' ) ;
#196 = FACE_OUTER_BOUND ( 'NONE', #237, .T. ) ;
#197 = CALENDAR_DATE ( 2017, 2, 11 ) ;
#198 = EDGE_CURVE ( 'NONE', #166, #212, #184, .T. ) ;
#199 = LINE ( 'NONE', #6, #111 ) ;
#200 = APPROVAL ( #51, 'UNSPECIFIED' ) ;
#201 = AXIS2_PLACEMENT_3D ( 'NONE', #8, #138, #29 ) ;
#202 = EDGE_LOOP ( 'NONE', ( #151, #35, #10, #125 ) ) ;
#203 = VERTEX_POINT ( 'NONE', #68 ) ;
#204 = FACE_OUTER_BOUND ( 'NONE', #202, .T. ) ;
#205 = DIRECTION ( 'NONE',  ( -0.0000000000000000000, -0.0000000000000000000, -1.000000000000000000 ) ) ;
#206 = ORIENTED_EDGE ( 'NONE', *, *, #198, .T. ) ;
#207 = LINE ( 'NONE', #43, #153 ) ;
#208 = APPLICATION_PROTOCOL_DEFINITION ( 'international standard', 'config_control_design', 1994, #226 ) ;
#209 = CC_DESIGN_APPROVAL ( #200, ( #165 ) ) ;
#210 = DATE_TIME_ROLE ( 'creation_date' ) ;
#211 = AXIS2_PLACEMENT_3D ( 'NONE', #2, #5, #18 ) ;
#212 = VERTEX_POINT ( 'NONE', #193 ) ;
#213 = PERSON_AND_ORGANIZATION ( #139, #33 ) ;
#214 = APPROVAL_PERSON_ORGANIZATION ( #116, #55, #195 ) ;
#215 = VECTOR ( 'NONE', #113, 1000.000000000000000 ) ;
#216 = VERTEX_POINT ( 'NONE', #105 ) ;
#217 = LINE ( 'NONE', #86, #42 ) ;
#218 = CC_DESIGN_SECURITY_CLASSIFICATION ( #165, ( #106 ) ) ;
#219 = DESIGN_CONTEXT ( 'detailed design', #49, 'design' ) ;
#220 = COORDINATED_UNIVERSAL_TIME_OFFSET ( 9, 0, .AHEAD. ) ;
#221 = CARTESIAN_POINT ( 'NONE',  ( 7.500000000000001800, -5.000000000000000000, 500.0000000000000000 ) ) ;
#222 = DIRECTION ( 'NONE',  ( -8.673617379884035500E-017, 1.000000000000000000, -0.0000000000000000000 ) ) ;
#223 = DIRECTION ( 'NONE',  ( 1.734723475976807100E-016, -1.000000000000000000, 0.0000000000000000000 ) ) ;
#224 = COORDINATED_UNIVERSAL_TIME_OFFSET ( 9, 0, .AHEAD. ) ;
#225 = DIRECTION ( 'NONE',  ( 8.673617379884035500E-017, -1.000000000000000000, 0.0000000000000000000 ) ) ;
#226 = APPLICATION_CONTEXT ( 'configuration controlled 3d designs of mechanical parts and assemblies' ) ;
#227 = APPROVAL_ROLE ( '' ) ;
#228 = ORIENTED_EDGE ( 'NONE', *, *, #117, .F. ) ;
#229 = VERTEX_POINT ( 'NONE', #172 ) ;
#230 = PRODUCT_RELATED_PRODUCT_CATEGORY ( 'detail', '', ( #122 ) ) ;
#231 = DIRECTION ( 'NONE',  ( 0.0000000000000000000, -0.0000000000000000000, 1.000000000000000000 ) ) ;
#232 = EDGE_LOOP ( 'NONE', ( #27, #74, #206, #144 ) ) ;
#233 = APPROVAL_PERSON_ORGANIZATION ( #81, #200, #181 ) ;
#234 = LINE ( 'NONE', #64, #57 ) ;
#235 = ORIENTED_EDGE ( 'NONE', *, *, #77, .F. ) ;
#236 = ADVANCED_FACE ( 'NONE', ( #136 ), #121, .F. ) ;
#237 = EDGE_LOOP ( 'NONE', ( #168, #186, #92, #15 ) ) ;
ENDSEC;
END-ISO-10303-21;
