ISO-10303-21;
HEADER;
FILE_DESCRIPTION (( 'STEP AP203' ),
    '1' );
FILE_NAME ('sone3D.STEP',
    '2017-11-02T04:49:39',
    ( '' ),
    ( '' ),
    'SwSTEP 2.0',
    'SolidWorks 2014',
    '' );
FILE_SCHEMA (( 'CONFIG_CONTROL_DESIGN' ));
ENDSEC;

DATA;
#1 = PERSON_AND_ORGANIZATION_ROLE ( 'design_owner' ) ;
#2 = APPROVAL ( #152, 'UNSPECIFIED' ) ;
#3 = PERSON_AND_ORGANIZATION ( #99, #188 ) ;
#4 = DATE_TIME_ROLE ( 'classification_date' ) ;
#5 = ORIENTED_EDGE ( 'NONE', *, *, #73, .T. ) ;
#6 = VECTOR ( 'NONE', #194, 1000.000000000000000 ) ;
#7 = LOCAL_TIME ( 13, 49, 39.00000000000000000, #59 ) ;
#8 = ORIENTED_EDGE ( 'NONE', *, *, #9, .T. ) ;
#9 = EDGE_CURVE ( 'NONE', #147, #71, #98, .T. ) ;
#10 = LINE ( 'NONE', #108, #23 ) ;
#11 = CALENDAR_DATE ( 2017, 2, 11 ) ;
#12 = CC_DESIGN_APPROVAL ( #2, ( #226 ) ) ;
#13 = EDGE_LOOP ( 'NONE', ( #193, #77, #118, #64 ) ) ;
#14 = DIRECTION ( 'NONE',  ( -0.0000000000000000000, 1.000000000000000000, -0.0000000000000000000 ) ) ;
#15 = EDGE_LOOP ( 'NONE', ( #27, #119, #18, #191 ) ) ;
#16 = CARTESIAN_POINT ( 'NONE',  ( -5.000000000000000000, -5.000000000000000000, 500.0000000000000000 ) ) ;
#17 = PLANE ( 'NONE',  #46 ) ;
#18 = ORIENTED_EDGE ( 'NONE', *, *, #26, .F. ) ;
#19 = DIRECTION ( 'NONE',  ( 0.0000000000000000000, -1.000000000000000000, 0.0000000000000000000 ) ) ;
#20 = DIRECTION ( 'NONE',  ( -1.734723475976807100E-016, 1.000000000000000000, 0.0000000000000000000 ) ) ;
#21 = DIRECTION ( 'NONE',  ( 1.000000000000000000, 0.0000000000000000000, 0.0000000000000000000 ) ) ;
#22 = APPLICATION_PROTOCOL_DEFINITION ( 'international standard', 'config_control_design', 1994, #132 ) ;
#23 = VECTOR ( 'NONE', #235, 1000.000000000000000 ) ;
#24 = APPROVAL_ROLE ( '' ) ;
#25 = ORIENTED_EDGE ( 'NONE', *, *, #62, .F. ) ;
#26 = EDGE_CURVE ( 'NONE', #39, #147, #178, .T. ) ;
#27 = ORIENTED_EDGE ( 'NONE', *, *, #236, .T. ) ;
#28 = COORDINATED_UNIVERSAL_TIME_OFFSET ( 9, 0, .AHEAD. ) ;
#29 = CC_DESIGN_PERSON_AND_ORGANIZATION_ASSIGNMENT ( #161, #168, ( #226 ) ) ;
#30 = APPROVAL_PERSON_ORGANIZATION ( #206, #2, #41 ) ;
#31 = VECTOR ( 'NONE', #214, 1000.000000000000000 ) ;
#32 = CARTESIAN_POINT ( 'NONE',  ( -5.000000000000000000, -5.000000000000000000, 500.0000000000000000 ) ) ;
#33 = CARTESIAN_POINT ( 'NONE',  ( 0.0000000000000000000, 0.0000000000000000000, -500.0000000000000000 ) ) ;
#34 = CARTESIAN_POINT ( 'NONE',  ( -5.000000000000001800, 5.000000000000000000, -500.0000000000000000 ) ) ;
#35 = VECTOR ( 'NONE', #232, 1000.000000000000000 ) ;
#36 = EDGE_CURVE ( 'NONE', #71, #79, #225, .T. ) ;
#37 = PLANE ( 'NONE',  #78 ) ;
#38 = CARTESIAN_POINT ( 'NONE',  ( 0.0000000000000000000, 0.0000000000000000000, 0.0000000000000000000 ) ) ;
#39 = VERTEX_POINT ( 'NONE', #16 ) ;
#40 =( NAMED_UNIT ( * ) PLANE_ANGLE_UNIT ( ) SI_UNIT ( $, .RADIAN. ) );
#41 = APPROVAL_ROLE ( '' ) ;
#42 = CC_DESIGN_DATE_AND_TIME_ASSIGNMENT ( #201, #60, ( #226 ) ) ;
#43 = LOCAL_TIME ( 13, 49, 39.00000000000000000, #84 ) ;
#44 = EDGE_LOOP ( 'NONE', ( #228, #183, #130, #175 ) ) ;
#45 = PRODUCT ( 'sone3D', 'sone3D', '', ( #114 ) ) ;
#46 = AXIS2_PLACEMENT_3D ( 'NONE', #148, #163, #55 ) ;
#47 = CALENDAR_DATE ( 2017, 2, 11 ) ;
#48 = ORIENTED_EDGE ( 'NONE', *, *, #100, .F. ) ;
#49 = ADVANCED_FACE ( 'NONE', ( #169 ), #146, .F. ) ;
#50 = EDGE_CURVE ( 'NONE', #111, #79, #10, .T. ) ;
#51 = CARTESIAN_POINT ( 'NONE',  ( -5.000000000000001800, 5.000000000000000000, 500.0000000000000000 ) ) ;
#52 = PRODUCT_DEFINITION_FORMATION_WITH_SPECIFIED_SOURCE ( 'ANY', '', #45, .NOT_KNOWN. ) ;
#53 = PERSON_AND_ORGANIZATION ( #99, #188 ) ;
#54 = LINE ( 'NONE', #86, #6 ) ;
#55 = DIRECTION ( 'NONE',  ( 0.0000000000000000000, -0.0000000000000000000, 1.000000000000000000 ) ) ;
#56 = DIRECTION ( 'NONE',  ( -1.000000000000000000, 0.0000000000000000000, 0.0000000000000000000 ) ) ;
#57 = CARTESIAN_POINT ( 'NONE',  ( -5.000000000000000000, -5.000000000000000000, -500.0000000000000000 ) ) ;
#58 = ORIENTED_EDGE ( 'NONE', *, *, #189, .F. ) ;
#59 = COORDINATED_UNIVERSAL_TIME_OFFSET ( 9, 0, .AHEAD. ) ;
#60 = DATE_TIME_ROLE ( 'creation_date' ) ;
#61 = CALENDAR_DATE ( 2017, 2, 11 ) ;
#62 = EDGE_CURVE ( 'NONE', #147, #111, #54, .T. ) ;
#63 = LOCAL_TIME ( 13, 49, 39.00000000000000000, #113 ) ;
#64 = ORIENTED_EDGE ( 'NONE', *, *, #81, .T. ) ;
#65 = APPROVAL ( #185, 'UNSPECIFIED' ) ;
#66 = VECTOR ( 'NONE', #14, 1000.000000000000000 ) ;
#67 = ADVANCED_FACE ( 'NONE', ( #104 ), #17, .F. ) ;
#68 = VECTOR ( 'NONE', #216, 1000.000000000000000 ) ;
#69 = DIRECTION ( 'NONE',  ( 1.000000000000000000, 0.0000000000000000000, 0.0000000000000000000 ) ) ;
#70 = DIRECTION ( 'NONE',  ( -0.0000000000000000000, -0.0000000000000000000, -1.000000000000000000 ) ) ;
#71 = VERTEX_POINT ( 'NONE', #215 ) ;
#72 = CARTESIAN_POINT ( 'NONE',  ( -5.000000000000001800, 5.000000000000000000, 500.0000000000000000 ) ) ;
#73 = EDGE_CURVE ( 'NONE', #79, #167, #91, .T. ) ;
#74 = DIRECTION ( 'NONE',  ( 1.734723475976807100E-016, -1.000000000000000000, 0.0000000000000000000 ) ) ;
#75 = APPROVAL_ROLE ( '' ) ;
#76 = CC_DESIGN_APPROVAL ( #65, ( #52 ) ) ;
#77 = ORIENTED_EDGE ( 'NONE', *, *, #26, .T. ) ;
#78 = AXIS2_PLACEMENT_3D ( 'NONE', #164, #56, #179 ) ;
#79 = VERTEX_POINT ( 'NONE', #88 ) ;
#80 = FACE_OUTER_BOUND ( 'NONE', #44, .T. ) ;
#81 = EDGE_CURVE ( 'NONE', #111, #115, #196, .T. ) ;
#82 = LINE ( 'NONE', #165, #212 ) ;
#83 = CC_DESIGN_PERSON_AND_ORGANIZATION_ASSIGNMENT ( #53, #202, ( #52 ) ) ;
#84 = COORDINATED_UNIVERSAL_TIME_OFFSET ( 9, 0, .AHEAD. ) ;
#85 = CARTESIAN_POINT ( 'NONE',  ( 5.000000000000000000, 5.000000000000000000, -500.0000000000000000 ) ) ;
#86 = CARTESIAN_POINT ( 'NONE',  ( 5.000000000000000000, 5.000000000000000000, 500.0000000000000000 ) ) ;
#87 = FACE_OUTER_BOUND ( 'NONE', #211, .T. ) ;
#88 = CARTESIAN_POINT ( 'NONE',  ( 5.000000000000000000, 5.000000000000000000, -500.0000000000000000 ) ) ;
#89 = PLANE ( 'NONE',  #94 ) ;
#90 = DIRECTION ( 'NONE',  ( 1.734723475976807100E-016, -1.000000000000000000, 0.0000000000000000000 ) ) ;
#91 = LINE ( 'NONE', #34, #231 ) ;
#92 = ORIENTED_EDGE ( 'NONE', *, *, #36, .F. ) ;
#93 = DIRECTION ( 'NONE',  ( 1.000000000000000000, 0.0000000000000000000, 0.0000000000000000000 ) ) ;
#94 = AXIS2_PLACEMENT_3D ( 'NONE', #72, #19, #110 ) ;
#95 = DIRECTION ( 'NONE',  ( 0.0000000000000000000, 0.0000000000000000000, 1.000000000000000000 ) ) ;
#96 = PERSON_AND_ORGANIZATION_ROLE ( 'design_supplier' ) ;
#97 = LOCAL_TIME ( 13, 49, 39.00000000000000000, #145 ) ;
#98 = LINE ( 'NONE', #107, #31 ) ;
#99 = PERSON ( 'UNSPECIFIED', 'UNSPECIFIED', 'UNSPECIFIED', ('UNSPECIFIED'), ('UNSPECIFIED'), ('UNSPECIFIED') ) ;
#100 = EDGE_CURVE ( 'NONE', #115, #167, #205, .T. ) ;
#101 = APPROVAL_DATE_TIME ( #153, #65 ) ;
#102 = CC_DESIGN_PERSON_AND_ORGANIZATION_ASSIGNMENT ( #3, #96, ( #52 ) ) ;
#103 = VECTOR ( 'NONE', #90, 1000.000000000000000 ) ;
#104 = FACE_OUTER_BOUND ( 'NONE', #15, .T. ) ;
#105 = APPROVAL_PERSON_ORGANIZATION ( #158, #65, #75 ) ;
#106 = LOCAL_TIME ( 13, 49, 39.00000000000000000, #28 ) ;
#107 = CARTESIAN_POINT ( 'NONE',  ( 5.000000000000000000, -5.000000000000000000, 500.0000000000000000 ) ) ;
#108 = CARTESIAN_POINT ( 'NONE',  ( 5.000000000000000000, 5.000000000000000000, 500.0000000000000000 ) ) ;
#109 = CARTESIAN_POINT ( 'NONE',  ( -5.000000000000001800, 5.000000000000000000, 500.0000000000000000 ) ) ;
#110 = DIRECTION ( 'NONE',  ( 0.0000000000000000000, -0.0000000000000000000, -1.000000000000000000 ) ) ;
#111 = VERTEX_POINT ( 'NONE', #126 ) ;
#112 = PLANE ( 'NONE',  #131 ) ;
#113 = COORDINATED_UNIVERSAL_TIME_OFFSET ( 9, 0, .AHEAD. ) ;
#114 = MECHANICAL_CONTEXT ( 'NONE', #199, 'mechanical' ) ;
#115 = VERTEX_POINT ( 'NONE', #149 ) ;
#116 = PERSON_AND_ORGANIZATION_ROLE ( 'classification_officer' ) ;
#117 = SECURITY_CLASSIFICATION ( '', '', #221 ) ;
#118 = ORIENTED_EDGE ( 'NONE', *, *, #62, .T. ) ;
#119 = ORIENTED_EDGE ( 'NONE', *, *, #9, .F. ) ;
#120 = EDGE_LOOP ( 'NONE', ( #203, #171, #25, #8 ) ) ;
#121 = ADVANCED_FACE ( 'NONE', ( #173 ), #37, .F. ) ;
#122 = LINE ( 'NONE', #181, #103 ) ;
#123 = CC_DESIGN_PERSON_AND_ORGANIZATION_ASSIGNMENT ( #190, #116, ( #117 ) ) ;
#124 = ORIENTED_EDGE ( 'NONE', *, *, #73, .F. ) ;
#125 = DESIGN_CONTEXT ( 'detailed design', #132, 'design' ) ;
#126 = CARTESIAN_POINT ( 'NONE',  ( 5.000000000000000000, 5.000000000000000000, 500.0000000000000000 ) ) ;
#127 = DIRECTION ( 'NONE',  ( -1.000000000000000000, -0.0000000000000000000, -0.0000000000000000000 ) ) ;
#128 = DIRECTION ( 'NONE',  ( 1.000000000000000000, 1.734723475976807100E-016, -0.0000000000000000000 ) ) ;
#129 = CARTESIAN_POINT ( 'NONE',  ( -5.000000000000000000, -5.000000000000000000, -500.0000000000000000 ) ) ;
#130 = ORIENTED_EDGE ( 'NONE', *, *, #174, .F. ) ;
#131 = AXIS2_PLACEMENT_3D ( 'NONE', #51, #128, #20 ) ;
#132 = APPLICATION_CONTEXT ( 'configuration controlled 3d designs of mechanical parts and assemblies' ) ;
#133 = APPROVAL_STATUS ( 'not_yet_approved' ) ;
#134 = APPROVAL_DATE_TIME ( #176, #154 ) ;
#135 = LINE ( 'NONE', #129, #155 ) ;
#136 = CC_DESIGN_DATE_AND_TIME_ASSIGNMENT ( #233, #4, ( #117 ) ) ;
#137 = APPROVAL_PERSON_ORGANIZATION ( #186, #154, #24 ) ;
#138 = SHAPE_DEFINITION_REPRESENTATION ( #230, #142 ) ;
#139 = AXIS2_PLACEMENT_3D ( 'NONE', #33, #177, #69 ) ;
#140 = ADVANCED_FACE ( 'NONE', ( #87 ), #89, .F. ) ;
#141 = DATE_AND_TIME ( #61, #106 ) ;
#142 = ADVANCED_BREP_SHAPE_REPRESENTATION ( 'sone3D', ( #224, #200 ), #144 ) ;
#143 = ORIENTED_EDGE ( 'NONE', *, *, #236, .F. ) ;
#144 =( GEOMETRIC_REPRESENTATION_CONTEXT ( 3 ) GLOBAL_UNCERTAINTY_ASSIGNED_CONTEXT ( ( #180 ) ) GLOBAL_UNIT_ASSIGNED_CONTEXT ( ( #151, #40, #166 ) ) REPRESENTATION_CONTEXT ( 'NONE', 'WORKASPACE' ) );
#145 = COORDINATED_UNIVERSAL_TIME_OFFSET ( 9, 0, .AHEAD. ) ;
#146 = PLANE ( 'NONE',  #139 ) ;
#147 = VERTEX_POINT ( 'NONE', #195 ) ;
#148 = CARTESIAN_POINT ( 'NONE',  ( -5.000000000000000000, -5.000000000000000000, 500.0000000000000000 ) ) ;
#149 = CARTESIAN_POINT ( 'NONE',  ( -5.000000000000001800, 5.000000000000000000, 500.0000000000000000 ) ) ;
#150 = CARTESIAN_POINT ( 'NONE',  ( -5.000000000000000000, -5.000000000000000000, 500.0000000000000000 ) ) ;
#151 =( LENGTH_UNIT ( ) NAMED_UNIT ( * ) SI_UNIT ( .MILLI., .METRE. ) );
#152 = APPROVAL_STATUS ( 'not_yet_approved' ) ;
#153 = DATE_AND_TIME ( #192, #7 ) ;
#154 = APPROVAL ( #133, 'UNSPECIFIED' ) ;
#155 = VECTOR ( 'NONE', #21, 1000.000000000000000 ) ;
#156 = VERTEX_POINT ( 'NONE', #57 ) ;
#157 = AXIS2_PLACEMENT_3D ( 'NONE', #219, #198, #93 ) ;
#158 = PERSON_AND_ORGANIZATION ( #99, #188 ) ;
#159 = VECTOR ( 'NONE', #70, 1000.000000000000000 ) ;
#160 = ORIENTED_EDGE ( 'NONE', *, *, #50, .T. ) ;
#161 = PERSON_AND_ORGANIZATION ( #99, #188 ) ;
#162 = CC_DESIGN_APPROVAL ( #154, ( #117 ) ) ;
#163 = DIRECTION ( 'NONE',  ( 0.0000000000000000000, 1.000000000000000000, 0.0000000000000000000 ) ) ;
#164 = CARTESIAN_POINT ( 'NONE',  ( 5.000000000000000000, 5.000000000000000000, 500.0000000000000000 ) ) ;
#165 = CARTESIAN_POINT ( 'NONE',  ( -5.000000000000001800, 5.000000000000000000, -500.0000000000000000 ) ) ;
#166 =( NAMED_UNIT ( * ) SI_UNIT ( $, .STERADIAN. ) SOLID_ANGLE_UNIT ( ) );
#167 = VERTEX_POINT ( 'NONE', #218 ) ;
#168 = PERSON_AND_ORGANIZATION_ROLE ( 'creator' ) ;
#169 = FACE_OUTER_BOUND ( 'NONE', #208, .T. ) ;
#170 = LINE ( 'NONE', #150, #204 ) ;
#171 = ORIENTED_EDGE ( 'NONE', *, *, #50, .F. ) ;
#172 = CC_DESIGN_SECURITY_CLASSIFICATION ( #117, ( #52 ) ) ;
#173 = FACE_OUTER_BOUND ( 'NONE', #120, .T. ) ;
#174 = EDGE_CURVE ( 'NONE', #115, #39, #122, .T. ) ;
#175 = ORIENTED_EDGE ( 'NONE', *, *, #100, .T. ) ;
#176 = DATE_AND_TIME ( #227, #43 ) ;
#177 = DIRECTION ( 'NONE',  ( -0.0000000000000000000, 0.0000000000000000000, 1.000000000000000000 ) ) ;
#178 = LINE ( 'NONE', #32, #35 ) ;
#179 = DIRECTION ( 'NONE',  ( 0.0000000000000000000, 0.0000000000000000000, 1.000000000000000000 ) ) ;
#180 = UNCERTAINTY_MEASURE_WITH_UNIT (LENGTH_MEASURE( 1.000000000000000100E-005 ), #151, 'distance_accuracy_value', 'NONE');
#181 = CARTESIAN_POINT ( 'NONE',  ( -5.000000000000001800, 5.000000000000000000, 500.0000000000000000 ) ) ;
#182 = PLANE ( 'NONE',  #157 ) ;
#183 = ORIENTED_EDGE ( 'NONE', *, *, #223, .F. ) ;
#184 = APPLICATION_PROTOCOL_DEFINITION ( 'international standard', 'config_control_design', 1994, #199 ) ;
#185 = APPROVAL_STATUS ( 'not_yet_approved' ) ;
#186 = PERSON_AND_ORGANIZATION ( #99, #188 ) ;
#187 = PRODUCT_RELATED_PRODUCT_CATEGORY ( 'detail', '', ( #45 ) ) ;
#188 = ORGANIZATION ( 'UNSPECIFIED', 'UNSPECIFIED', '' ) ;
#189 = EDGE_CURVE ( 'NONE', #167, #156, #82, .T. ) ;
#190 = PERSON_AND_ORGANIZATION ( #99, #188 ) ;
#191 = ORIENTED_EDGE ( 'NONE', *, *, #223, .T. ) ;
#192 = CALENDAR_DATE ( 2017, 2, 11 ) ;
#193 = ORIENTED_EDGE ( 'NONE', *, *, #174, .T. ) ;
#194 = DIRECTION ( 'NONE',  ( -0.0000000000000000000, 1.000000000000000000, -0.0000000000000000000 ) ) ;
#195 = CARTESIAN_POINT ( 'NONE',  ( 5.000000000000000000, -5.000000000000000000, 500.0000000000000000 ) ) ;
#196 = LINE ( 'NONE', #237, #68 ) ;
#197 = DIRECTION ( 'NONE',  ( -0.0000000000000000000, -0.0000000000000000000, -1.000000000000000000 ) ) ;
#198 = DIRECTION ( 'NONE',  ( -0.0000000000000000000, 0.0000000000000000000, 1.000000000000000000 ) ) ;
#199 = APPLICATION_CONTEXT ( 'configuration controlled 3d designs of mechanical parts and assemblies' ) ;
#200 = AXIS2_PLACEMENT_3D ( 'NONE', #38, #95, #220 ) ;
#201 = DATE_AND_TIME ( #11, #63 ) ;
#202 = PERSON_AND_ORGANIZATION_ROLE ( 'creator' ) ;
#203 = ORIENTED_EDGE ( 'NONE', *, *, #36, .T. ) ;
#204 = VECTOR ( 'NONE', #197, 1000.000000000000000 ) ;
#205 = LINE ( 'NONE', #109, #159 ) ;
#206 = PERSON_AND_ORGANIZATION ( #99, #188 ) ;
#207 = APPROVAL_DATE_TIME ( #141, #2 ) ;
#208 = EDGE_LOOP ( 'NONE', ( #58, #124, #92, #143 ) ) ;
#209 = PERSON_AND_ORGANIZATION ( #99, #188 ) ;
#210 = ADVANCED_FACE ( 'NONE', ( #80 ), #112, .F. ) ;
#211 = EDGE_LOOP ( 'NONE', ( #5, #48, #217, #160 ) ) ;
#212 = VECTOR ( 'NONE', #74, 1000.000000000000000 ) ;
#213 = CC_DESIGN_PERSON_AND_ORGANIZATION_ASSIGNMENT ( #209, #1, ( #45 ) ) ;
#214 = DIRECTION ( 'NONE',  ( -0.0000000000000000000, -0.0000000000000000000, -1.000000000000000000 ) ) ;
#215 = CARTESIAN_POINT ( 'NONE',  ( 5.000000000000000000, -5.000000000000000000, -500.0000000000000000 ) ) ;
#216 = DIRECTION ( 'NONE',  ( -1.000000000000000000, -0.0000000000000000000, -0.0000000000000000000 ) ) ;
#217 = ORIENTED_EDGE ( 'NONE', *, *, #81, .F. ) ;
#218 = CARTESIAN_POINT ( 'NONE',  ( -5.000000000000001800, 5.000000000000000000, -500.0000000000000000 ) ) ;
#219 = CARTESIAN_POINT ( 'NONE',  ( 0.0000000000000000000, 0.0000000000000000000, 500.0000000000000000 ) ) ;
#220 = DIRECTION ( 'NONE',  ( 1.000000000000000000, 0.0000000000000000000, 0.0000000000000000000 ) ) ;
#221 = SECURITY_CLASSIFICATION_LEVEL ( 'unclassified' ) ;
#222 = FACE_OUTER_BOUND ( 'NONE', #13, .T. ) ;
#223 = EDGE_CURVE ( 'NONE', #39, #156, #170, .T. ) ;
#224 = MANIFOLD_SOLID_BREP ( 'ÎÞ½ - µoµ1', #234 ) ;
#225 = LINE ( 'NONE', #85, #66 ) ;
#226 = PRODUCT_DEFINITION ( 'UNKNOWN', '', #52, #125 ) ;
#227 = CALENDAR_DATE ( 2017, 2, 11 ) ;
#228 = ORIENTED_EDGE ( 'NONE', *, *, #189, .T. ) ;
#229 = ADVANCED_FACE ( 'NONE', ( #222 ), #182, .T. ) ;
#230 = PRODUCT_DEFINITION_SHAPE ( 'NONE', 'NONE',  #226 ) ;
#231 = VECTOR ( 'NONE', #127, 1000.000000000000000 ) ;
#232 = DIRECTION ( 'NONE',  ( 1.000000000000000000, 0.0000000000000000000, 0.0000000000000000000 ) ) ;
#233 = DATE_AND_TIME ( #47, #97 ) ;
#234 = CLOSED_SHELL ( 'NONE', ( #210, #67, #121, #140, #229, #49 ) ) ;
#235 = DIRECTION ( 'NONE',  ( -0.0000000000000000000, -0.0000000000000000000, -1.000000000000000000 ) ) ;
#236 = EDGE_CURVE ( 'NONE', #156, #71, #135, .T. ) ;
#237 = CARTESIAN_POINT ( 'NONE',  ( -5.000000000000001800, 5.000000000000000000, 500.0000000000000000 ) ) ;
ENDSEC;
END-ISO-10303-21;
