ISO-10303-21;
HEADER;
FILE_DESCRIPTION (( 'STEP AP203' ),
    '1' );
FILE_NAME ('sone3D.STEP',
    '2017-11-02T04:19:23',
    ( '' ),
    ( '' ),
    'SwSTEP 2.0',
    'SolidWorks 2014',
    '' );
FILE_SCHEMA (( 'CONFIG_CONTROL_DESIGN' ));
ENDSEC;

DATA;
#1 = ORIENTED_EDGE ( 'NONE', *, *, #24, .F. ) ;
#2 = LOCAL_TIME ( 13, 19, 23.00000000000000000, #171 ) ;
#3 = ORIENTED_EDGE ( 'NONE', *, *, #131, .F. ) ;
#4 = ORIENTED_EDGE ( 'NONE', *, *, #47, .F. ) ;
#5 = AXIS2_PLACEMENT_3D ( 'NONE', #190, #193, #87 ) ;
#6 = EDGE_LOOP ( 'NONE', ( #64, #3, #153, #214 ) ) ;
#7 =( GEOMETRIC_REPRESENTATION_CONTEXT ( 3 ) GLOBAL_UNCERTAINTY_ASSIGNED_CONTEXT ( ( #130 ) ) GLOBAL_UNIT_ASSIGNED_CONTEXT ( ( #56, #183, #72 ) ) REPRESENTATION_CONTEXT ( 'NONE', 'WORKASPACE' ) );
#8 = CALENDAR_DATE ( 2017, 2, 11 ) ;
#9 = VECTOR ( 'NONE', #127, 1000.000000000000000 ) ;
#10 = ORIENTED_EDGE ( 'NONE', *, *, #114, .F. ) ;
#11 = CARTESIAN_POINT ( 'NONE',  ( 0.0000000000000000000, 0.0000000000000000000, -500.0000000000000000 ) ) ;
#12 = CARTESIAN_POINT ( 'NONE',  ( -9.999999999999998200, 2.499999999999998700, 500.0000000000000000 ) ) ;
#13 = PERSON_AND_ORGANIZATION_ROLE ( 'design_supplier' ) ;
#14 = CARTESIAN_POINT ( 'NONE',  ( -10.00000000000000000, -2.500000000000001300, -500.0000000000000000 ) ) ;
#15 = CC_DESIGN_APPROVAL ( #80, ( #134 ) ) ;
#16 = DATE_AND_TIME ( #28, #150 ) ;
#17 = VECTOR ( 'NONE', #205, 1000.000000000000000 ) ;
#18 = LOCAL_TIME ( 13, 19, 23.00000000000000000, #237 ) ;
#19 = CALENDAR_DATE ( 2017, 2, 11 ) ;
#20 = LINE ( 'NONE', #157, #199 ) ;
#21 = PERSON_AND_ORGANIZATION ( #220, #117 ) ;
#22 = APPROVAL_DATE_TIME ( #16, #80 ) ;
#23 = FACE_OUTER_BOUND ( 'NONE', #151, .T. ) ;
#24 = EDGE_CURVE ( 'NONE', #187, #98, #94, .T. ) ;
#25 = ORIENTED_EDGE ( 'NONE', *, *, #76, .F. ) ;
#26 = ORIENTED_EDGE ( 'NONE', *, *, #57, .F. ) ;
#27 = EDGE_LOOP ( 'NONE', ( #221, #177, #119, #164 ) ) ;
#28 = CALENDAR_DATE ( 2017, 2, 11 ) ;
#29 = DIRECTION ( 'NONE',  ( -3.469446951953614200E-016, -1.000000000000000000, 0.0000000000000000000 ) ) ;
#30 = DIRECTION ( 'NONE',  ( -0.0000000000000000000, -0.0000000000000000000, -1.000000000000000000 ) ) ;
#31 = VECTOR ( 'NONE', #30, 1000.000000000000000 ) ;
#32 = DIRECTION ( 'NONE',  ( 1.000000000000000000, 0.0000000000000000000, 0.0000000000000000000 ) ) ;
#33 = DIRECTION ( 'NONE',  ( 0.0000000000000000000, -1.000000000000000000, 0.0000000000000000000 ) ) ;
#34 = PERSON_AND_ORGANIZATION_ROLE ( 'classification_officer' ) ;
#35 = PLANE ( 'NONE',  #75 ) ;
#36 = ORIENTED_EDGE ( 'NONE', *, *, #131, .T. ) ;
#37 = FACE_OUTER_BOUND ( 'NONE', #166, .T. ) ;
#38 = ORIENTED_EDGE ( 'NONE', *, *, #234, .F. ) ;
#39 = AXIS2_PLACEMENT_3D ( 'NONE', #163, #231, #128 ) ;
#40 = PERSON_AND_ORGANIZATION ( #220, #117 ) ;
#41 = VECTOR ( 'NONE', #162, 1000.000000000000000 ) ;
#42 = CARTESIAN_POINT ( 'NONE',  ( -9.999999999999998200, 2.499999999999998700, 500.0000000000000000 ) ) ;
#43 = VERTEX_POINT ( 'NONE', #100 ) ;
#44 = CC_DESIGN_PERSON_AND_ORGANIZATION_ASSIGNMENT ( #79, #126, ( #169 ) ) ;
#45 = CLOSED_SHELL ( 'NONE', ( #115, #121, #185, #184, #92, #96 ) ) ;
#46 = DATE_AND_TIME ( #19, #113 ) ;
#47 = EDGE_CURVE ( 'NONE', #43, #187, #222, .T. ) ;
#48 = APPROVAL_DATE_TIME ( #118, #235 ) ;
#49 = DIRECTION ( 'NONE',  ( -0.0000000000000000000, -0.0000000000000000000, -1.000000000000000000 ) ) ;
#50 = CC_DESIGN_APPROVAL ( #235, ( #232 ) ) ;
#51 = APPLICATION_CONTEXT ( 'configuration controlled 3d designs of mechanical parts and assemblies' ) ;
#52 = DIRECTION ( 'NONE',  ( 0.0000000000000000000, -0.0000000000000000000, 1.000000000000000000 ) ) ;
#53 = PLANE ( 'NONE',  #82 ) ;
#54 = APPROVAL_STATUS ( 'not_yet_approved' ) ;
#55 = CARTESIAN_POINT ( 'NONE',  ( -9.999999999999998200, 2.499999999999998700, 500.0000000000000000 ) ) ;
#56 =( LENGTH_UNIT ( ) NAMED_UNIT ( * ) SI_UNIT ( .MILLI., .METRE. ) );
#57 = EDGE_CURVE ( 'NONE', #197, #187, #78, .T. ) ;
#58 = ORIENTED_EDGE ( 'NONE', *, *, #234, .T. ) ;
#59 = FACE_OUTER_BOUND ( 'NONE', #6, .T. ) ;
#60 = EDGE_LOOP ( 'NONE', ( #147, #109, #25, #36 ) ) ;
#61 = ORIENTED_EDGE ( 'NONE', *, *, #76, .T. ) ;
#62 = CC_DESIGN_PERSON_AND_ORGANIZATION_ASSIGNMENT ( #77, #13, ( #169 ) ) ;
#63 = VERTEX_POINT ( 'NONE', #84 ) ;
#64 = ORIENTED_EDGE ( 'NONE', *, *, #114, .T. ) ;
#65 = CC_DESIGN_PERSON_AND_ORGANIZATION_ASSIGNMENT ( #110, #159, ( #175 ) ) ;
#66 = CARTESIAN_POINT ( 'NONE',  ( 9.999999999999998200, 2.499999999999998700, 500.0000000000000000 ) ) ;
#67 = DATE_AND_TIME ( #155, #18 ) ;
#68 = APPROVAL_STATUS ( 'not_yet_approved' ) ;
#69 = DIRECTION ( 'NONE',  ( -0.0000000000000000000, 0.0000000000000000000, 1.000000000000000000 ) ) ;
#70 = CARTESIAN_POINT ( 'NONE',  ( -9.999999999999998200, 2.499999999999998700, -500.0000000000000000 ) ) ;
#71 = DIRECTION ( 'NONE',  ( 1.000000000000000000, -3.469446951953614200E-016, 0.0000000000000000000 ) ) ;
#72 =( NAMED_UNIT ( * ) SI_UNIT ( $, .STERADIAN. ) SOLID_ANGLE_UNIT ( ) );
#73 = AXIS2_PLACEMENT_3D ( 'NONE', #182, #229, #52 ) ;
#74 = VECTOR ( 'NONE', #224, 1000.000000000000000 ) ;
#75 = AXIS2_PLACEMENT_3D ( 'NONE', #55, #71, #194 ) ;
#76 = EDGE_CURVE ( 'NONE', #158, #63, #112, .T. ) ;
#77 = PERSON_AND_ORGANIZATION ( #220, #117 ) ;
#78 = LINE ( 'NONE', #201, #233 ) ;
#79 = PERSON_AND_ORGANIZATION ( #220, #117 ) ;
#80 = APPROVAL ( #54, 'UNSPECIFIED' ) ;
#81 = AXIS2_PLACEMENT_3D ( 'NONE', #12, #33, #160 ) ;
#82 = AXIS2_PLACEMENT_3D ( 'NONE', #11, #69, #192 ) ;
#83 = PERSON_AND_ORGANIZATION ( #220, #117 ) ;
#84 = CARTESIAN_POINT ( 'NONE',  ( 9.999999999999998200, 2.499999999999998700, 500.0000000000000000 ) ) ;
#85 = DIRECTION ( 'NONE',  ( -0.0000000000000000000, -0.0000000000000000000, -1.000000000000000000 ) ) ;
#86 = PERSON_AND_ORGANIZATION_ROLE ( 'creator' ) ;
#87 = DIRECTION ( 'NONE',  ( 3.469446951953614200E-016, -1.000000000000000000, 0.0000000000000000000 ) ) ;
#88 = APPLICATION_PROTOCOL_DEFINITION ( 'international standard', 'config_control_design', 1994, #107 ) ;
#89 = LINE ( 'NONE', #145, #152 ) ;
#90 = PRODUCT_DEFINITION_SHAPE ( 'NONE', 'NONE',  #232 ) ;
#91 = COORDINATED_UNIVERSAL_TIME_OFFSET ( 9, 0, .AHEAD. ) ;
#92 = ADVANCED_FACE ( 'NONE', ( #23 ), #156, .T. ) ;
#93 = LINE ( 'NONE', #227, #9 ) ;
#94 = LINE ( 'NONE', #174, #211 ) ;
#95 = VECTOR ( 'NONE', #85, 1000.000000000000000 ) ;
#96 = ADVANCED_FACE ( 'NONE', ( #37 ), #53, .F. ) ;
#97 = EDGE_CURVE ( 'NONE', #108, #158, #93, .T. ) ;
#98 = VERTEX_POINT ( 'NONE', #207 ) ;
#99 = LINE ( 'NONE', #173, #31 ) ;
#100 = CARTESIAN_POINT ( 'NONE',  ( -9.999999999999998200, 2.499999999999998700, 500.0000000000000000 ) ) ;
#101 = PLANE ( 'NONE',  #81 ) ;
#102 = ADVANCED_BREP_SHAPE_REPRESENTATION ( 'sone3D', ( #213, #39 ), #7 ) ;
#103 = APPROVAL_STATUS ( 'not_yet_approved' ) ;
#104 = CARTESIAN_POINT ( 'NONE',  ( -10.00000000000000000, -2.500000000000001300, 500.0000000000000000 ) ) ;
#105 = CARTESIAN_POINT ( 'NONE',  ( 10.00000000000000000, -2.500000000000001300, -500.0000000000000000 ) ) ;
#106 = MECHANICAL_CONTEXT ( 'NONE', #107, 'mechanical' ) ;
#107 = APPLICATION_CONTEXT ( 'configuration controlled 3d designs of mechanical parts and assemblies' ) ;
#108 = VERTEX_POINT ( 'NONE', #104 ) ;
#109 = ORIENTED_EDGE ( 'NONE', *, *, #141, .F. ) ;
#110 = PERSON_AND_ORGANIZATION ( #220, #117 ) ;
#111 = ORIENTED_EDGE ( 'NONE', *, *, #57, .T. ) ;
#112 = LINE ( 'NONE', #204, #74 ) ;
#113 = LOCAL_TIME ( 13, 19, 23.00000000000000000, #91 ) ;
#114 = EDGE_CURVE ( 'NONE', #98, #188, #210, .T. ) ;
#115 = ADVANCED_FACE ( 'NONE', ( #217 ), #35, .F. ) ;
#116 = CC_DESIGN_PERSON_AND_ORGANIZATION_ASSIGNMENT ( #83, #86, ( #232 ) ) ;
#117 = ORGANIZATION ( 'UNSPECIFIED', 'UNSPECIFIED', '' ) ;
#118 = DATE_AND_TIME ( #8, #2 ) ;
#119 = ORIENTED_EDGE ( 'NONE', *, *, #149, .F. ) ;
#120 = CARTESIAN_POINT ( 'NONE',  ( -9.999999999999998200, 2.499999999999998700, 500.0000000000000000 ) ) ;
#121 = ADVANCED_FACE ( 'NONE', ( #59 ), #144, .F. ) ;
#122 = DIRECTION ( 'NONE',  ( -3.469446951953614200E-016, 1.000000000000000000, -0.0000000000000000000 ) ) ;
#123 = DESIGN_CONTEXT ( 'detailed design', #51, 'design' ) ;
#124 = LOCAL_TIME ( 13, 19, 23.00000000000000000, #132 ) ;
#125 = CARTESIAN_POINT ( 'NONE',  ( 0.0000000000000000000, 0.0000000000000000000, 500.0000000000000000 ) ) ;
#126 = PERSON_AND_ORGANIZATION_ROLE ( 'creator' ) ;
#127 = DIRECTION ( 'NONE',  ( 1.000000000000000000, 0.0000000000000000000, 0.0000000000000000000 ) ) ;
#128 = DIRECTION ( 'NONE',  ( 1.000000000000000000, 0.0000000000000000000, 0.0000000000000000000 ) ) ;
#129 = EDGE_CURVE ( 'NONE', #188, #197, #202, .T. ) ;
#130 = UNCERTAINTY_MEASURE_WITH_UNIT (LENGTH_MEASURE( 1.000000000000000100E-005 ), #56, 'distance_accuracy_value', 'NONE');
#131 = EDGE_CURVE ( 'NONE', #158, #188, #99, .T. ) ;
#132 = COORDINATED_UNIVERSAL_TIME_OFFSET ( 9, 0, .AHEAD. ) ;
#133 = EDGE_CURVE ( 'NONE', #108, #98, #20, .T. ) ;
#134 = SECURITY_CLASSIFICATION ( '', '', #142 ) ;
#135 = CC_DESIGN_DATE_AND_TIME_ASSIGNMENT ( #176, #206, ( #232 ) ) ;
#136 = VECTOR ( 'NONE', #49, 1000.000000000000000 ) ;
#137 = PRODUCT_RELATED_PRODUCT_CATEGORY ( 'detail', '', ( #175 ) ) ;
#138 = EDGE_LOOP ( 'NONE', ( #111, #4, #38, #196 ) ) ;
#139 = DIRECTION ( 'NONE',  ( -0.0000000000000000000, 0.0000000000000000000, 1.000000000000000000 ) ) ;
#140 = CARTESIAN_POINT ( 'NONE',  ( 9.999999999999998200, 2.499999999999998700, -500.0000000000000000 ) ) ;
#141 = EDGE_CURVE ( 'NONE', #63, #197, #168, .T. ) ;
#142 = SECURITY_CLASSIFICATION_LEVEL ( 'unclassified' ) ;
#143 = CC_DESIGN_DATE_AND_TIME_ASSIGNMENT ( #67, #161, ( #134 ) ) ;
#144 = PLANE ( 'NONE',  #73 ) ;
#145 = CARTESIAN_POINT ( 'NONE',  ( -9.999999999999998200, 2.499999999999998700, 500.0000000000000000 ) ) ;
#146 = LINE ( 'NONE', #42, #17 ) ;
#147 = ORIENTED_EDGE ( 'NONE', *, *, #129, .T. ) ;
#148 = APPROVAL_PERSON_ORGANIZATION ( #186, #235, #191 ) ;
#149 = EDGE_CURVE ( 'NONE', #43, #108, #146, .T. ) ;
#150 = LOCAL_TIME ( 13, 19, 23.00000000000000000, #198 ) ;
#151 = EDGE_LOOP ( 'NONE', ( #209, #170, #61, #58 ) ) ;
#152 = VECTOR ( 'NONE', #208, 1000.000000000000000 ) ;
#153 = ORIENTED_EDGE ( 'NONE', *, *, #97, .F. ) ;
#154 = APPROVAL_PERSON_ORGANIZATION ( #40, #218, #226 ) ;
#155 = CALENDAR_DATE ( 2017, 2, 11 ) ;
#156 = PLANE ( 'NONE',  #165 ) ;
#157 = CARTESIAN_POINT ( 'NONE',  ( -10.00000000000000000, -2.500000000000001300, 500.0000000000000000 ) ) ;
#158 = VERTEX_POINT ( 'NONE', #225 ) ;
#159 = PERSON_AND_ORGANIZATION_ROLE ( 'design_owner' ) ;
#160 = DIRECTION ( 'NONE',  ( 0.0000000000000000000, -0.0000000000000000000, -1.000000000000000000 ) ) ;
#161 = DATE_TIME_ROLE ( 'classification_date' ) ;
#162 = DIRECTION ( 'NONE',  ( 1.000000000000000000, 0.0000000000000000000, 0.0000000000000000000 ) ) ;
#163 = CARTESIAN_POINT ( 'NONE',  ( 0.0000000000000000000, 0.0000000000000000000, 0.0000000000000000000 ) ) ;
#164 = ORIENTED_EDGE ( 'NONE', *, *, #47, .T. ) ;
#165 = AXIS2_PLACEMENT_3D ( 'NONE', #125, #139, #32 ) ;
#166 = EDGE_LOOP ( 'NONE', ( #1, #26, #195, #10 ) ) ;
#167 = CC_DESIGN_PERSON_AND_ORGANIZATION_ASSIGNMENT ( #203, #34, ( #134 ) ) ;
#168 = LINE ( 'NONE', #66, #95 ) ;
#169 = PRODUCT_DEFINITION_FORMATION_WITH_SPECIFIED_SOURCE ( 'ANY', '', #175, .NOT_KNOWN. ) ;
#170 = ORIENTED_EDGE ( 'NONE', *, *, #97, .T. ) ;
#171 = COORDINATED_UNIVERSAL_TIME_OFFSET ( 9, 0, .AHEAD. ) ;
#172 = CALENDAR_DATE ( 2017, 2, 11 ) ;
#173 = CARTESIAN_POINT ( 'NONE',  ( 10.00000000000000000, -2.500000000000001300, 500.0000000000000000 ) ) ;
#174 = CARTESIAN_POINT ( 'NONE',  ( -9.999999999999998200, 2.499999999999998700, -500.0000000000000000 ) ) ;
#175 = PRODUCT ( 'sone3D', 'sone3D', '', ( #106 ) ) ;
#176 = DATE_AND_TIME ( #172, #124 ) ;
#177 = ORIENTED_EDGE ( 'NONE', *, *, #133, .F. ) ;
#178 = DIRECTION ( 'NONE',  ( -0.0000000000000000000, -0.0000000000000000000, -1.000000000000000000 ) ) ;
#179 = APPLICATION_PROTOCOL_DEFINITION ( 'international standard', 'config_control_design', 1994, #51 ) ;
#180 = PLANE ( 'NONE',  #5 ) ;
#181 = APPROVAL_ROLE ( '' ) ;
#182 = CARTESIAN_POINT ( 'NONE',  ( -10.00000000000000000, -2.500000000000001300, 500.0000000000000000 ) ) ;
#183 =( NAMED_UNIT ( * ) PLANE_ANGLE_UNIT ( ) SI_UNIT ( $, .RADIAN. ) );
#184 = ADVANCED_FACE ( 'NONE', ( #236 ), #101, .F. ) ;
#185 = ADVANCED_FACE ( 'NONE', ( #228 ), #180, .F. ) ;
#186 = PERSON_AND_ORGANIZATION ( #220, #117 ) ;
#187 = VERTEX_POINT ( 'NONE', #70 ) ;
#188 = VERTEX_POINT ( 'NONE', #105 ) ;
#189 = DIRECTION ( 'NONE',  ( -1.000000000000000000, -0.0000000000000000000, -0.0000000000000000000 ) ) ;
#190 = CARTESIAN_POINT ( 'NONE',  ( 9.999999999999998200, 2.499999999999998700, 500.0000000000000000 ) ) ;
#191 = APPROVAL_ROLE ( '' ) ;
#192 = DIRECTION ( 'NONE',  ( 1.000000000000000000, 0.0000000000000000000, 0.0000000000000000000 ) ) ;
#193 = DIRECTION ( 'NONE',  ( -1.000000000000000000, -3.469446951953614200E-016, 0.0000000000000000000 ) ) ;
#194 = DIRECTION ( 'NONE',  ( 3.469446951953614200E-016, 1.000000000000000000, 0.0000000000000000000 ) ) ;
#195 = ORIENTED_EDGE ( 'NONE', *, *, #129, .F. ) ;
#196 = ORIENTED_EDGE ( 'NONE', *, *, #141, .T. ) ;
#197 = VERTEX_POINT ( 'NONE', #140 ) ;
#198 = COORDINATED_UNIVERSAL_TIME_OFFSET ( 9, 0, .AHEAD. ) ;
#199 = VECTOR ( 'NONE', #178, 1000.000000000000000 ) ;
#200 = SHAPE_DEFINITION_REPRESENTATION ( #90, #102 ) ;
#201 = CARTESIAN_POINT ( 'NONE',  ( -9.999999999999998200, 2.499999999999998700, -500.0000000000000000 ) ) ;
#202 = LINE ( 'NONE', #223, #219 ) ;
#203 = PERSON_AND_ORGANIZATION ( #220, #117 ) ;
#204 = CARTESIAN_POINT ( 'NONE',  ( 9.999999999999998200, 2.499999999999998700, 500.0000000000000000 ) ) ;
#205 = DIRECTION ( 'NONE',  ( -3.469446951953614200E-016, -1.000000000000000000, 0.0000000000000000000 ) ) ;
#206 = DATE_TIME_ROLE ( 'creation_date' ) ;
#207 = CARTESIAN_POINT ( 'NONE',  ( -10.00000000000000000, -2.500000000000001300, -500.0000000000000000 ) ) ;
#208 = DIRECTION ( 'NONE',  ( -1.000000000000000000, -0.0000000000000000000, -0.0000000000000000000 ) ) ;
#209 = ORIENTED_EDGE ( 'NONE', *, *, #149, .T. ) ;
#210 = LINE ( 'NONE', #14, #41 ) ;
#211 = VECTOR ( 'NONE', #29, 1000.000000000000000 ) ;
#212 = CC_DESIGN_APPROVAL ( #218, ( #169 ) ) ;
#213 = MANIFOLD_SOLID_BREP ( 'ÎÞ½ - µoµ1', #45 ) ;
#214 = ORIENTED_EDGE ( 'NONE', *, *, #133, .T. ) ;
#215 = CC_DESIGN_SECURITY_CLASSIFICATION ( #134, ( #169 ) ) ;
#216 = APPROVAL_PERSON_ORGANIZATION ( #21, #80, #181 ) ;
#217 = FACE_OUTER_BOUND ( 'NONE', #27, .T. ) ;
#218 = APPROVAL ( #103, 'UNSPECIFIED' ) ;
#219 = VECTOR ( 'NONE', #122, 1000.000000000000000 ) ;
#220 = PERSON ( 'UNSPECIFIED', 'UNSPECIFIED', 'UNSPECIFIED', ('UNSPECIFIED'), ('UNSPECIFIED'), ('UNSPECIFIED') ) ;
#221 = ORIENTED_EDGE ( 'NONE', *, *, #24, .T. ) ;
#222 = LINE ( 'NONE', #120, #136 ) ;
#223 = CARTESIAN_POINT ( 'NONE',  ( 9.999999999999998200, 2.499999999999998700, -500.0000000000000000 ) ) ;
#224 = DIRECTION ( 'NONE',  ( -3.469446951953614200E-016, 1.000000000000000000, -0.0000000000000000000 ) ) ;
#225 = CARTESIAN_POINT ( 'NONE',  ( 10.00000000000000000, -2.500000000000001300, 500.0000000000000000 ) ) ;
#226 = APPROVAL_ROLE ( '' ) ;
#227 = CARTESIAN_POINT ( 'NONE',  ( -10.00000000000000000, -2.500000000000001300, 500.0000000000000000 ) ) ;
#228 = FACE_OUTER_BOUND ( 'NONE', #60, .T. ) ;
#229 = DIRECTION ( 'NONE',  ( 0.0000000000000000000, 1.000000000000000000, 0.0000000000000000000 ) ) ;
#230 = APPROVAL_DATE_TIME ( #46, #218 ) ;
#231 = DIRECTION ( 'NONE',  ( 0.0000000000000000000, 0.0000000000000000000, 1.000000000000000000 ) ) ;
#232 = PRODUCT_DEFINITION ( 'UNKNOWN', '', #169, #123 ) ;
#233 = VECTOR ( 'NONE', #189, 1000.000000000000000 ) ;
#234 = EDGE_CURVE ( 'NONE', #63, #43, #89, .T. ) ;
#235 = APPROVAL ( #68, 'UNSPECIFIED' ) ;
#236 = FACE_OUTER_BOUND ( 'NONE', #138, .T. ) ;
#237 = COORDINATED_UNIVERSAL_TIME_OFFSET ( 9, 0, .AHEAD. ) ;
ENDSEC;
END-ISO-10303-21;
