ISO-10303-21;
HEADER;
FILE_DESCRIPTION (( 'STEP AP203' ),
    '1' );
FILE_NAME ('sone3D.STEP',
    '2017-11-02T04:19:08',
    ( '' ),
    ( '' ),
    'SwSTEP 2.0',
    'SolidWorks 2014',
    '' );
FILE_SCHEMA (( 'CONFIG_CONTROL_DESIGN' ));
ENDSEC;

DATA;
#1 = CALENDAR_DATE ( 2017, 2, 11 ) ;
#2 = APPROVAL_PERSON_ORGANIZATION ( #57, #75, #7 ) ;
#3 = ORIENTED_EDGE ( 'NONE', *, *, #171, .T. ) ;
#4 = PRODUCT_DEFINITION ( 'UNKNOWN', '', #153, #64 ) ;
#5 = CC_DESIGN_PERSON_AND_ORGANIZATION_ASSIGNMENT ( #8, #47, ( #6 ) ) ;
#6 = PRODUCT ( 'sone3D', 'sone3D', '', ( #205 ) ) ;
#7 = APPROVAL_ROLE ( '' ) ;
#8 = PERSON_AND_ORGANIZATION ( #218, #34 ) ;
#9 = COORDINATED_UNIVERSAL_TIME_OFFSET ( 9, 0, .AHEAD. ) ;
#10 = EDGE_LOOP ( 'NONE', ( #120, #203, #170, #3 ) ) ;
#11 = CARTESIAN_POINT ( 'NONE',  ( 7.499999999999999100, 2.499999999999999100, -500.0000000000000000 ) ) ;
#12 =( LENGTH_UNIT ( ) NAMED_UNIT ( * ) SI_UNIT ( .MILLI., .METRE. ) );
#13 = AXIS2_PLACEMENT_3D ( 'NONE', #21, #102, #43 ) ;
#14 = CARTESIAN_POINT ( 'NONE',  ( 7.499999999999999100, -2.500000000000000900, 500.0000000000000000 ) ) ;
#15 = CC_DESIGN_DATE_AND_TIME_ASSIGNMENT ( #108, #225, ( #4 ) ) ;
#16 = LINE ( 'NONE', #183, #230 ) ;
#17 = CARTESIAN_POINT ( 'NONE',  ( -7.500000000000000000, -2.500000000000000900, 500.0000000000000000 ) ) ;
#18 = ORIENTED_EDGE ( 'NONE', *, *, #77, .T. ) ;
#19 = EDGE_LOOP ( 'NONE', ( #182, #72, #167, #114 ) ) ;
#20 = CARTESIAN_POINT ( 'NONE',  ( -7.500000000000000900, 2.499999999999999100, 500.0000000000000000 ) ) ;
#21 = CARTESIAN_POINT ( 'NONE',  ( 0.0000000000000000000, 0.0000000000000000000, 0.0000000000000000000 ) ) ;
#22 = VECTOR ( 'NONE', #116, 1000.000000000000000 ) ;
#23 = LINE ( 'NONE', #74, #147 ) ;
#24 = CALENDAR_DATE ( 2017, 2, 11 ) ;
#25 = EDGE_LOOP ( 'NONE', ( #207, #117, #65, #216 ) ) ;
#26 = PERSON_AND_ORGANIZATION_ROLE ( 'design_supplier' ) ;
#27 = APPROVAL ( #204, 'UNSPECIFIED' ) ;
#28 = ORIENTED_EDGE ( 'NONE', *, *, #190, .T. ) ;
#29 = PLANE ( 'NONE',  #61 ) ;
#30 = AXIS2_PLACEMENT_3D ( 'NONE', #58, #95, #52 ) ;
#31 = LINE ( 'NONE', #93, #220 ) ;
#32 = CARTESIAN_POINT ( 'NONE',  ( -7.500000000000000900, 2.499999999999999100, -500.0000000000000000 ) ) ;
#33 = CARTESIAN_POINT ( 'NONE',  ( -7.500000000000000000, -2.500000000000000900, -500.0000000000000000 ) ) ;
#34 = ORGANIZATION ( 'UNSPECIFIED', 'UNSPECIFIED', '' ) ;
#35 = VECTOR ( 'NONE', #62, 1000.000000000000000 ) ;
#36 = APPROVAL_PERSON_ORGANIZATION ( #87, #179, #187 ) ;
#37 = ADVANCED_FACE ( 'NONE', ( #160 ), #191, .F. ) ;
#38 = LINE ( 'NONE', #231, #175 ) ;
#39 = VERTEX_POINT ( 'NONE', #141 ) ;
#40 = VERTEX_POINT ( 'NONE', #226 ) ;
#41 = EDGE_LOOP ( 'NONE', ( #28, #223, #150, #18 ) ) ;
#42 = COORDINATED_UNIVERSAL_TIME_OFFSET ( 9, 0, .AHEAD. ) ;
#43 = DIRECTION ( 'NONE',  ( 1.000000000000000000, 0.0000000000000000000, 0.0000000000000000000 ) ) ;
#44 = LINE ( 'NONE', #192, #110 ) ;
#45 = APPLICATION_CONTEXT ( 'configuration controlled 3d designs of mechanical parts and assemblies' ) ;
#46 = PERSON_AND_ORGANIZATION_ROLE ( 'classification_officer' ) ;
#47 = PERSON_AND_ORGANIZATION_ROLE ( 'design_owner' ) ;
#48 = VERTEX_POINT ( 'NONE', #210 ) ;
#49 = DATE_AND_TIME ( #101, #146 ) ;
#50 = DIRECTION ( 'NONE',  ( 0.0000000000000000000, -1.000000000000000000, 0.0000000000000000000 ) ) ;
#51 = FACE_OUTER_BOUND ( 'NONE', #162, .T. ) ;
#52 = DIRECTION ( 'NONE',  ( 1.000000000000000000, 0.0000000000000000000, 0.0000000000000000000 ) ) ;
#53 = ORIENTED_EDGE ( 'NONE', *, *, #99, .T. ) ;
#54 = DIRECTION ( 'NONE',  ( -0.0000000000000000000, -0.0000000000000000000, -1.000000000000000000 ) ) ;
#55 = EDGE_CURVE ( 'NONE', #40, #39, #229, .T. ) ;
#56 = LOCAL_TIME ( 13, 19, 8.000000000000000000, #107 ) ;
#57 = PERSON_AND_ORGANIZATION ( #218, #34 ) ;
#58 = CARTESIAN_POINT ( 'NONE',  ( 0.0000000000000000000, 0.0000000000000000000, -500.0000000000000000 ) ) ;
#59 = CARTESIAN_POINT ( 'NONE',  ( 0.0000000000000000000, 0.0000000000000000000, 500.0000000000000000 ) ) ;
#60 = PLANE ( 'NONE',  #83 ) ;
#61 = AXIS2_PLACEMENT_3D ( 'NONE', #142, #194, #130 ) ;
#62 = DIRECTION ( 'NONE',  ( -0.0000000000000000000, -0.0000000000000000000, -1.000000000000000000 ) ) ;
#63 = LINE ( 'NONE', #217, #143 ) ;
#64 = DESIGN_CONTEXT ( 'detailed design', #45, 'design' ) ;
#65 = ORIENTED_EDGE ( 'NONE', *, *, #55, .F. ) ;
#66 = ADVANCED_FACE ( 'NONE', ( #134 ), #60, .F. ) ;
#67 = ADVANCED_BREP_SHAPE_REPRESENTATION ( 'sone3D', ( #144, #13 ), #103 ) ;
#68 = ORIENTED_EDGE ( 'NONE', *, *, #55, .T. ) ;
#69 = APPROVAL_STATUS ( 'not_yet_approved' ) ;
#70 = CARTESIAN_POINT ( 'NONE',  ( -7.500000000000000900, 2.499999999999999100, 500.0000000000000000 ) ) ;
#71 = AXIS2_PLACEMENT_3D ( 'NONE', #202, #237, #82 ) ;
#72 = ORIENTED_EDGE ( 'NONE', *, *, #99, .F. ) ;
#73 = ADVANCED_FACE ( 'NONE', ( #76 ), #184, .F. ) ;
#74 = CARTESIAN_POINT ( 'NONE',  ( 7.499999999999999100, 2.499999999999999100, 500.0000000000000000 ) ) ;
#75 = APPROVAL ( #125, 'UNSPECIFIED' ) ;
#76 = FACE_OUTER_BOUND ( 'NONE', #25, .T. ) ;
#77 = EDGE_CURVE ( 'NONE', #164, #106, #133, .T. ) ;
#78 = DIRECTION ( 'NONE',  ( -1.000000000000000000, -0.0000000000000000000, -0.0000000000000000000 ) ) ;
#79 = VERTEX_POINT ( 'NONE', #219 ) ;
#80 = DIRECTION ( 'NONE',  ( 1.000000000000000000, 1.734723475976807100E-016, -0.0000000000000000000 ) ) ;
#81 = ORIENTED_EDGE ( 'NONE', *, *, #199, .T. ) ;
#82 = DIRECTION ( 'NONE',  ( 0.0000000000000000000, 0.0000000000000000000, 1.000000000000000000 ) ) ;
#83 = AXIS2_PLACEMENT_3D ( 'NONE', #20, #80, #121 ) ;
#84 = ORIENTED_EDGE ( 'NONE', *, *, #199, .F. ) ;
#85 = SHAPE_DEFINITION_REPRESENTATION ( #135, #67 ) ;
#86 = ORIENTED_EDGE ( 'NONE', *, *, #126, .T. ) ;
#87 = PERSON_AND_ORGANIZATION ( #218, #34 ) ;
#88 = ORIENTED_EDGE ( 'NONE', *, *, #136, .T. ) ;
#89 =( NAMED_UNIT ( * ) PLANE_ANGLE_UNIT ( ) SI_UNIT ( $, .RADIAN. ) );
#90 = CC_DESIGN_APPROVAL ( #179, ( #145 ) ) ;
#91 = DIRECTION ( 'NONE',  ( 1.000000000000000000, 0.0000000000000000000, 0.0000000000000000000 ) ) ;
#92 = PERSON_AND_ORGANIZATION ( #218, #34 ) ;
#93 = CARTESIAN_POINT ( 'NONE',  ( -7.500000000000000900, 2.499999999999999100, 500.0000000000000000 ) ) ;
#94 = CC_DESIGN_PERSON_AND_ORGANIZATION_ASSIGNMENT ( #92, #46, ( #145 ) ) ;
#95 = DIRECTION ( 'NONE',  ( -0.0000000000000000000, 0.0000000000000000000, 1.000000000000000000 ) ) ;
#96 = DIRECTION ( 'NONE',  ( -0.0000000000000000000, 0.0000000000000000000, 1.000000000000000000 ) ) ;
#97 = VECTOR ( 'NONE', #197, 1000.000000000000000 ) ;
#98 = DIRECTION ( 'NONE',  ( -0.0000000000000000000, 1.000000000000000000, -0.0000000000000000000 ) ) ;
#99 = EDGE_CURVE ( 'NONE', #122, #156, #16, .T. ) ;
#100 = APPROVAL_PERSON_ORGANIZATION ( #173, #27, #176 ) ;
#101 = CALENDAR_DATE ( 2017, 2, 11 ) ;
#102 = DIRECTION ( 'NONE',  ( 0.0000000000000000000, 0.0000000000000000000, 1.000000000000000000 ) ) ;
#103 =( GEOMETRIC_REPRESENTATION_CONTEXT ( 3 ) GLOBAL_UNCERTAINTY_ASSIGNED_CONTEXT ( ( #119 ) ) GLOBAL_UNIT_ASSIGNED_CONTEXT ( ( #12, #89, #215 ) ) REPRESENTATION_CONTEXT ( 'NONE', 'WORKASPACE' ) );
#104 = ADVANCED_FACE ( 'NONE', ( #127 ), #29, .F. ) ;
#105 = PERSON_AND_ORGANIZATION_ROLE ( 'creator' ) ;
#106 = VERTEX_POINT ( 'NONE', #148 ) ;
#107 = COORDINATED_UNIVERSAL_TIME_OFFSET ( 9, 0, .AHEAD. ) ;
#108 = DATE_AND_TIME ( #152, #196 ) ;
#109 = CARTESIAN_POINT ( 'NONE',  ( 7.499999999999999100, 2.499999999999999100, 500.0000000000000000 ) ) ;
#110 = VECTOR ( 'NONE', #228, 1000.000000000000000 ) ;
#111 = CARTESIAN_POINT ( 'NONE',  ( -7.500000000000000900, 2.499999999999999100, 500.0000000000000000 ) ) ;
#112 = CARTESIAN_POINT ( 'NONE',  ( -7.500000000000000900, 2.499999999999999100, -500.0000000000000000 ) ) ;
#113 = EDGE_CURVE ( 'NONE', #164, #40, #44, .T. ) ;
#114 = ORIENTED_EDGE ( 'NONE', *, *, #190, .F. ) ;
#115 = PERSON_AND_ORGANIZATION ( #218, #34 ) ;
#116 = DIRECTION ( 'NONE',  ( 1.734723475976807100E-016, -1.000000000000000000, 0.0000000000000000000 ) ) ;
#117 = ORIENTED_EDGE ( 'NONE', *, *, #136, .F. ) ;
#118 = AXIS2_PLACEMENT_3D ( 'NONE', #59, #96, #198 ) ;
#119 = UNCERTAINTY_MEASURE_WITH_UNIT (LENGTH_MEASURE( 1.000000000000000100E-005 ), #12, 'distance_accuracy_value', 'NONE');
#120 = ORIENTED_EDGE ( 'NONE', *, *, #168, .T. ) ;
#121 = DIRECTION ( 'NONE',  ( -1.734723475976807100E-016, 1.000000000000000000, 0.0000000000000000000 ) ) ;
#122 = VERTEX_POINT ( 'NONE', #11 ) ;
#123 = LOCAL_TIME ( 13, 19, 8.000000000000000000, #221 ) ;
#124 = FACE_OUTER_BOUND ( 'NONE', #19, .T. ) ;
#125 = APPROVAL_STATUS ( 'not_yet_approved' ) ;
#126 = EDGE_CURVE ( 'NONE', #79, #164, #206, .T. ) ;
#127 = FACE_OUTER_BOUND ( 'NONE', #41, .T. ) ;
#128 = CC_DESIGN_PERSON_AND_ORGANIZATION_ASSIGNMENT ( #140, #26, ( #153 ) ) ;
#129 = PRODUCT_RELATED_PRODUCT_CATEGORY ( 'detail', '', ( #6 ) ) ;
#130 = DIRECTION ( 'NONE',  ( 0.0000000000000000000, -0.0000000000000000000, 1.000000000000000000 ) ) ;
#131 = CC_DESIGN_SECURITY_CLASSIFICATION ( #145, ( #153 ) ) ;
#132 = EDGE_CURVE ( 'NONE', #48, #122, #38, .T. ) ;
#133 = LINE ( 'NONE', #17, #35 ) ;
#134 = FACE_OUTER_BOUND ( 'NONE', #10, .T. ) ;
#135 = PRODUCT_DEFINITION_SHAPE ( 'NONE', 'NONE',  #4 ) ;
#136 = EDGE_CURVE ( 'NONE', #39, #122, #23, .T. ) ;
#137 = ORIENTED_EDGE ( 'NONE', *, *, #113, .T. ) ;
#138 = DATE_AND_TIME ( #181, #227 ) ;
#139 = PERSON_AND_ORGANIZATION_ROLE ( 'creator' ) ;
#140 = PERSON_AND_ORGANIZATION ( #218, #34 ) ;
#141 = CARTESIAN_POINT ( 'NONE',  ( 7.499999999999999100, 2.499999999999999100, 500.0000000000000000 ) ) ;
#142 = CARTESIAN_POINT ( 'NONE',  ( -7.500000000000000000, -2.500000000000000900, 500.0000000000000000 ) ) ;
#143 = VECTOR ( 'NONE', #78, 1000.000000000000000 ) ;
#144 = MANIFOLD_SOLID_BREP ( 'ÎÞ½ - µoµ1', #235 ) ;
#145 = SECURITY_CLASSIFICATION ( '', '', #158 ) ;
#146 = LOCAL_TIME ( 13, 19, 8.000000000000000000, #189 ) ;
#147 = VECTOR ( 'NONE', #54, 1000.000000000000000 ) ;
#148 = CARTESIAN_POINT ( 'NONE',  ( -7.500000000000000000, -2.500000000000000900, -500.0000000000000000 ) ) ;
#149 = DIRECTION ( 'NONE',  ( -1.000000000000000000, -0.0000000000000000000, -0.0000000000000000000 ) ) ;
#150 = ORIENTED_EDGE ( 'NONE', *, *, #113, .F. ) ;
#151 = DATE_AND_TIME ( #1, #56 ) ;
#152 = CALENDAR_DATE ( 2017, 2, 11 ) ;
#153 = PRODUCT_DEFINITION_FORMATION_WITH_SPECIFIED_SOURCE ( 'ANY', '', #6, .NOT_KNOWN. ) ;
#154 = ORIENTED_EDGE ( 'NONE', *, *, #171, .F. ) ;
#155 = AXIS2_PLACEMENT_3D ( 'NONE', #70, #50, #209 ) ;
#156 = VERTEX_POINT ( 'NONE', #112 ) ;
#157 = LINE ( 'NONE', #33, #201 ) ;
#158 = SECURITY_CLASSIFICATION_LEVEL ( 'unclassified' ) ;
#159 = CC_DESIGN_DATE_AND_TIME_ASSIGNMENT ( #138, #174, ( #145 ) ) ;
#160 = FACE_OUTER_BOUND ( 'NONE', #186, .T. ) ;
#161 = CC_DESIGN_APPROVAL ( #75, ( #153 ) ) ;
#162 = EDGE_LOOP ( 'NONE', ( #86, #137, #68, #81 ) ) ;
#163 = PLANE ( 'NONE',  #30 ) ;
#164 = VERTEX_POINT ( 'NONE', #214 ) ;
#165 = EDGE_CURVE ( 'NONE', #40, #48, #193, .T. ) ;
#166 = APPROVAL_DATE_TIME ( #212, #179 ) ;
#167 = ORIENTED_EDGE ( 'NONE', *, *, #132, .F. ) ;
#168 = EDGE_CURVE ( 'NONE', #156, #106, #236, .T. ) ;
#169 = APPLICATION_CONTEXT ( 'configuration controlled 3d designs of mechanical parts and assemblies' ) ;
#170 = ORIENTED_EDGE ( 'NONE', *, *, #126, .F. ) ;
#171 = EDGE_CURVE ( 'NONE', #79, #156, #31, .T. ) ;
#172 = APPLICATION_PROTOCOL_DEFINITION ( 'international standard', 'config_control_design', 1994, #45 ) ;
#173 = PERSON_AND_ORGANIZATION ( #218, #34 ) ;
#174 = DATE_TIME_ROLE ( 'classification_date' ) ;
#175 = VECTOR ( 'NONE', #177, 1000.000000000000000 ) ;
#176 = APPROVAL_ROLE ( '' ) ;
#177 = DIRECTION ( 'NONE',  ( -0.0000000000000000000, 1.000000000000000000, -0.0000000000000000000 ) ) ;
#178 = VECTOR ( 'NONE', #98, 1000.000000000000000 ) ;
#179 = APPROVAL ( #69, 'UNSPECIFIED' ) ;
#180 = DIRECTION ( 'NONE',  ( -0.0000000000000000000, -0.0000000000000000000, -1.000000000000000000 ) ) ;
#181 = CALENDAR_DATE ( 2017, 2, 11 ) ;
#182 = ORIENTED_EDGE ( 'NONE', *, *, #168, .F. ) ;
#183 = CARTESIAN_POINT ( 'NONE',  ( -7.500000000000000900, 2.499999999999999100, -500.0000000000000000 ) ) ;
#184 = PLANE ( 'NONE',  #71 ) ;
#185 = PERSON_AND_ORGANIZATION ( #218, #34 ) ;
#186 = EDGE_LOOP ( 'NONE', ( #53, #154, #84, #88 ) ) ;
#187 = APPROVAL_ROLE ( '' ) ;
#188 = ADVANCED_FACE ( 'NONE', ( #51 ), #200, .T. ) ;
#189 = COORDINATED_UNIVERSAL_TIME_OFFSET ( 9, 0, .AHEAD. ) ;
#190 = EDGE_CURVE ( 'NONE', #106, #48, #157, .T. ) ;
#191 = PLANE ( 'NONE',  #155 ) ;
#192 = CARTESIAN_POINT ( 'NONE',  ( -7.500000000000000000, -2.500000000000000900, 500.0000000000000000 ) ) ;
#193 = LINE ( 'NONE', #14, #97 ) ;
#194 = DIRECTION ( 'NONE',  ( 0.0000000000000000000, 1.000000000000000000, 0.0000000000000000000 ) ) ;
#195 = APPROVAL_DATE_TIME ( #151, #27 ) ;
#196 = LOCAL_TIME ( 13, 19, 8.000000000000000000, #9 ) ;
#197 = DIRECTION ( 'NONE',  ( -0.0000000000000000000, -0.0000000000000000000, -1.000000000000000000 ) ) ;
#198 = DIRECTION ( 'NONE',  ( 1.000000000000000000, 0.0000000000000000000, 0.0000000000000000000 ) ) ;
#199 = EDGE_CURVE ( 'NONE', #39, #79, #63, .T. ) ;
#200 = PLANE ( 'NONE',  #118 ) ;
#201 = VECTOR ( 'NONE', #91, 1000.000000000000000 ) ;
#202 = CARTESIAN_POINT ( 'NONE',  ( 7.499999999999999100, 2.499999999999999100, 500.0000000000000000 ) ) ;
#203 = ORIENTED_EDGE ( 'NONE', *, *, #77, .F. ) ;
#204 = APPROVAL_STATUS ( 'not_yet_approved' ) ;
#205 = MECHANICAL_CONTEXT ( 'NONE', #169, 'mechanical' ) ;
#206 = LINE ( 'NONE', #111, #211 ) ;
#207 = ORIENTED_EDGE ( 'NONE', *, *, #132, .T. ) ;
#208 = CC_DESIGN_APPROVAL ( #27, ( #4 ) ) ;
#209 = DIRECTION ( 'NONE',  ( 0.0000000000000000000, -0.0000000000000000000, -1.000000000000000000 ) ) ;
#210 = CARTESIAN_POINT ( 'NONE',  ( 7.499999999999999100, -2.500000000000000900, -500.0000000000000000 ) ) ;
#211 = VECTOR ( 'NONE', #213, 1000.000000000000000 ) ;
#212 = DATE_AND_TIME ( #24, #123 ) ;
#213 = DIRECTION ( 'NONE',  ( 1.734723475976807100E-016, -1.000000000000000000, 0.0000000000000000000 ) ) ;
#214 = CARTESIAN_POINT ( 'NONE',  ( -7.500000000000000000, -2.500000000000000900, 500.0000000000000000 ) ) ;
#215 =( NAMED_UNIT ( * ) SI_UNIT ( $, .STERADIAN. ) SOLID_ANGLE_UNIT ( ) );
#216 = ORIENTED_EDGE ( 'NONE', *, *, #165, .T. ) ;
#217 = CARTESIAN_POINT ( 'NONE',  ( -7.500000000000000900, 2.499999999999999100, 500.0000000000000000 ) ) ;
#218 = PERSON ( 'UNSPECIFIED', 'UNSPECIFIED', 'UNSPECIFIED', ('UNSPECIFIED'), ('UNSPECIFIED'), ('UNSPECIFIED') ) ;
#219 = CARTESIAN_POINT ( 'NONE',  ( -7.500000000000000900, 2.499999999999999100, 500.0000000000000000 ) ) ;
#220 = VECTOR ( 'NONE', #180, 1000.000000000000000 ) ;
#221 = COORDINATED_UNIVERSAL_TIME_OFFSET ( 9, 0, .AHEAD. ) ;
#222 = CC_DESIGN_PERSON_AND_ORGANIZATION_ASSIGNMENT ( #185, #139, ( #153 ) ) ;
#223 = ORIENTED_EDGE ( 'NONE', *, *, #165, .F. ) ;
#224 = APPLICATION_PROTOCOL_DEFINITION ( 'international standard', 'config_control_design', 1994, #169 ) ;
#225 = DATE_TIME_ROLE ( 'creation_date' ) ;
#226 = CARTESIAN_POINT ( 'NONE',  ( 7.499999999999999100, -2.500000000000000900, 500.0000000000000000 ) ) ;
#227 = LOCAL_TIME ( 13, 19, 8.000000000000000000, #42 ) ;
#228 = DIRECTION ( 'NONE',  ( 1.000000000000000000, 0.0000000000000000000, 0.0000000000000000000 ) ) ;
#229 = LINE ( 'NONE', #109, #178 ) ;
#230 = VECTOR ( 'NONE', #149, 1000.000000000000000 ) ;
#231 = CARTESIAN_POINT ( 'NONE',  ( 7.499999999999999100, 2.499999999999999100, -500.0000000000000000 ) ) ;
#232 = CC_DESIGN_PERSON_AND_ORGANIZATION_ASSIGNMENT ( #115, #105, ( #4 ) ) ;
#233 = APPROVAL_DATE_TIME ( #49, #75 ) ;
#234 = ADVANCED_FACE ( 'NONE', ( #124 ), #163, .F. ) ;
#235 = CLOSED_SHELL ( 'NONE', ( #66, #104, #73, #37, #188, #234 ) ) ;
#236 = LINE ( 'NONE', #32, #22 ) ;
#237 = DIRECTION ( 'NONE',  ( -1.000000000000000000, 0.0000000000000000000, 0.0000000000000000000 ) ) ;
ENDSEC;
END-ISO-10303-21;
