ISO-10303-21;
HEADER;
FILE_DESCRIPTION (( 'STEP AP203' ),
    '1' );
FILE_NAME ('sone3D.STEP',
    '2017-11-02T04:18:50',
    ( '' ),
    ( '' ),
    'SwSTEP 2.0',
    'SolidWorks 2014',
    '' );
FILE_SCHEMA (( 'CONFIG_CONTROL_DESIGN' ));
ENDSEC;

DATA;
#1 = PLANE ( 'NONE',  #72 ) ;
#2 = APPLICATION_CONTEXT ( 'configuration controlled 3d designs of mechanical parts and assemblies' ) ;
#3 = ORIENTED_EDGE ( 'NONE', *, *, #40, .T. ) ;
#4 = AXIS2_PLACEMENT_3D ( 'NONE', #43, #77, #107 ) ;
#5 = SHAPE_DEFINITION_REPRESENTATION ( #210, #85 ) ;
#6 = CARTESIAN_POINT ( 'NONE',  ( -5.000000000000000000, -2.499999999999999100, -500.0000000000000000 ) ) ;
#7 = EDGE_CURVE ( 'NONE', #236, #156, #75, .T. ) ;
#8 = DIRECTION ( 'NONE',  ( -1.000000000000000000, -0.0000000000000000000, -0.0000000000000000000 ) ) ;
#9 = CARTESIAN_POINT ( 'NONE',  ( -5.000000000000000900, 2.500000000000000900, -500.0000000000000000 ) ) ;
#10 = PLANE ( 'NONE',  #4 ) ;
#11 = CALENDAR_DATE ( 2017, 2, 11 ) ;
#12 = ADVANCED_FACE ( 'NONE', ( #167 ), #1, .F. ) ;
#13 = ORIENTED_EDGE ( 'NONE', *, *, #30, .T. ) ;
#14 = PERSON_AND_ORGANIZATION_ROLE ( 'classification_officer' ) ;
#15 = CC_DESIGN_PERSON_AND_ORGANIZATION_ASSIGNMENT ( #190, #86, ( #216 ) ) ;
#16 = CC_DESIGN_APPROVAL ( #18, ( #176 ) ) ;
#17 = LOCAL_TIME ( 13, 18, 50.00000000000000000, #61 ) ;
#18 = APPROVAL ( #213, 'UNSPECIFIED' ) ;
#19 = ORIENTED_EDGE ( 'NONE', *, *, #67, .F. ) ;
#20 = ORIENTED_EDGE ( 'NONE', *, *, #7, .F. ) ;
#21 = EDGE_CURVE ( 'NONE', #110, #236, #189, .T. ) ;
#22 = DIRECTION ( 'NONE',  ( 1.734723475976807100E-016, -1.000000000000000000, 0.0000000000000000000 ) ) ;
#23 = LOCAL_TIME ( 13, 18, 50.00000000000000000, #209 ) ;
#24 = CARTESIAN_POINT ( 'NONE',  ( 4.999999999999999100, 2.500000000000000900, -500.0000000000000000 ) ) ;
#25 = ORIENTED_EDGE ( 'NONE', *, *, #30, .F. ) ;
#26 = CARTESIAN_POINT ( 'NONE',  ( -5.000000000000000000, -2.499999999999999100, 500.0000000000000000 ) ) ;
#27 = LINE ( 'NONE', #180, #150 ) ;
#28 = PERSON_AND_ORGANIZATION ( #118, #104 ) ;
#29 = ADVANCED_FACE ( 'NONE', ( #116 ), #100, .F. ) ;
#30 = EDGE_CURVE ( 'NONE', #115, #177, #27, .T. ) ;
#31 = ORIENTED_EDGE ( 'NONE', *, *, #40, .F. ) ;
#32 = PERSON_AND_ORGANIZATION ( #118, #104 ) ;
#33 = EDGE_LOOP ( 'NONE', ( #3, #105, #39, #218 ) ) ;
#34 = CALENDAR_DATE ( 2017, 2, 11 ) ;
#35 = CARTESIAN_POINT ( 'NONE',  ( -5.000000000000000900, 2.500000000000000900, -500.0000000000000000 ) ) ;
#36 = EDGE_CURVE ( 'NONE', #156, #177, #131, .T. ) ;
#37 = DIRECTION ( 'NONE',  ( 1.000000000000000000, 0.0000000000000000000, 0.0000000000000000000 ) ) ;
#38 = CARTESIAN_POINT ( 'NONE',  ( -5.000000000000000900, 2.500000000000000900, -500.0000000000000000 ) ) ;
#39 = ORIENTED_EDGE ( 'NONE', *, *, #94, .T. ) ;
#40 = EDGE_CURVE ( 'NONE', #88, #110, #124, .T. ) ;
#41 = DIRECTION ( 'NONE',  ( 1.000000000000000000, 1.734723475976807100E-016, -0.0000000000000000000 ) ) ;
#42 = VECTOR ( 'NONE', #158, 1000.000000000000000 ) ;
#43 = CARTESIAN_POINT ( 'NONE',  ( 4.999999999999999100, 2.500000000000000900, 500.0000000000000000 ) ) ;
#44 = APPROVAL_DATE_TIME ( #81, #198 ) ;
#45 = DIRECTION ( 'NONE',  ( -0.0000000000000000000, 0.0000000000000000000, 1.000000000000000000 ) ) ;
#46 = CARTESIAN_POINT ( 'NONE',  ( 4.999999999999999100, 2.500000000000000900, 500.0000000000000000 ) ) ;
#47 = VERTEX_POINT ( 'NONE', #38 ) ;
#48 = DATE_TIME_ROLE ( 'classification_date' ) ;
#49 = APPROVAL_ROLE ( '' ) ;
#50 = VECTOR ( 'NONE', #92, 1000.000000000000000 ) ;
#51 = ORIENTED_EDGE ( 'NONE', *, *, #199, .F. ) ;
#52 = COORDINATED_UNIVERSAL_TIME_OFFSET ( 9, 0, .AHEAD. ) ;
#53 = AXIS2_PLACEMENT_3D ( 'NONE', #224, #179, #121 ) ;
#54 = CARTESIAN_POINT ( 'NONE',  ( -5.000000000000000000, -2.499999999999999100, -500.0000000000000000 ) ) ;
#55 = DIRECTION ( 'NONE',  ( 0.0000000000000000000, -0.0000000000000000000, -1.000000000000000000 ) ) ;
#56 = APPROVAL_DATE_TIME ( #148, #18 ) ;
#57 = DIRECTION ( 'NONE',  ( 1.000000000000000000, 0.0000000000000000000, 0.0000000000000000000 ) ) ;
#58 = DIRECTION ( 'NONE',  ( -1.734723475976807100E-016, 1.000000000000000000, 0.0000000000000000000 ) ) ;
#59 = AXIS2_PLACEMENT_3D ( 'NONE', #163, #41, #58 ) ;
#60 = VERTEX_POINT ( 'NONE', #122 ) ;
#61 = COORDINATED_UNIVERSAL_TIME_OFFSET ( 9, 0, .AHEAD. ) ;
#62 = LINE ( 'NONE', #183, #98 ) ;
#63 = PERSON_AND_ORGANIZATION_ROLE ( 'creator' ) ;
#64 = ORIENTED_EDGE ( 'NONE', *, *, #36, .T. ) ;
#65 = APPROVAL_PERSON_ORGANIZATION ( #151, #140, #49 ) ;
#66 = PERSON_AND_ORGANIZATION ( #118, #104 ) ;
#67 = EDGE_CURVE ( 'NONE', #110, #60, #226, .T. ) ;
#68 = APPLICATION_PROTOCOL_DEFINITION ( 'international standard', 'config_control_design', 1994, #2 ) ;
#69 =( GEOMETRIC_REPRESENTATION_CONTEXT ( 3 ) GLOBAL_UNCERTAINTY_ASSIGNED_CONTEXT ( ( #128 ) ) GLOBAL_UNIT_ASSIGNED_CONTEXT ( ( #201, #136, #99 ) ) REPRESENTATION_CONTEXT ( 'NONE', 'WORKASPACE' ) );
#70 = DIRECTION ( 'NONE',  ( 0.0000000000000000000, -1.000000000000000000, 0.0000000000000000000 ) ) ;
#71 = CARTESIAN_POINT ( 'NONE',  ( 4.999999999999999100, 2.500000000000000900, 500.0000000000000000 ) ) ;
#72 = AXIS2_PLACEMENT_3D ( 'NONE', #89, #225, #205 ) ;
#73 = CARTESIAN_POINT ( 'NONE',  ( 0.0000000000000000000, 0.0000000000000000000, -500.0000000000000000 ) ) ;
#74 = PLANE ( 'NONE',  #59 ) ;
#75 = LINE ( 'NONE', #6, #220 ) ;
#76 = DATE_AND_TIME ( #120, #165 ) ;
#77 = DIRECTION ( 'NONE',  ( -1.000000000000000000, -1.734723475976807100E-016, 0.0000000000000000000 ) ) ;
#78 = CC_DESIGN_PERSON_AND_ORGANIZATION_ASSIGNMENT ( #97, #63, ( #176 ) ) ;
#79 = VECTOR ( 'NONE', #208, 1000.000000000000000 ) ;
#80 = APPLICATION_CONTEXT ( 'configuration controlled 3d designs of mechanical parts and assemblies' ) ;
#81 = DATE_AND_TIME ( #34, #126 ) ;
#82 = ORIENTED_EDGE ( 'NONE', *, *, #36, .F. ) ;
#83 = CLOSED_SHELL ( 'NONE', ( #134, #12, #129, #29, #154, #171 ) ) ;
#84 = ORIENTED_EDGE ( 'NONE', *, *, #21, .F. ) ;
#85 = ADVANCED_BREP_SHAPE_REPRESENTATION ( 'sone3D', ( #234, #53 ), #69 ) ;
#86 = PERSON_AND_ORGANIZATION_ROLE ( 'design_owner' ) ;
#87 = AXIS2_PLACEMENT_3D ( 'NONE', #229, #45, #146 ) ;
#88 = VERTEX_POINT ( 'NONE', #232 ) ;
#89 = CARTESIAN_POINT ( 'NONE',  ( -5.000000000000000000, -2.499999999999999100, 500.0000000000000000 ) ) ;
#90 = LINE ( 'NONE', #185, #79 ) ;
#91 = DIRECTION ( 'NONE',  ( -0.0000000000000000000, -0.0000000000000000000, -1.000000000000000000 ) ) ;
#92 = DIRECTION ( 'NONE',  ( -1.734723475976807100E-016, 1.000000000000000000, -0.0000000000000000000 ) ) ;
#93 = APPROVAL_PERSON_ORGANIZATION ( #138, #18, #95 ) ;
#94 = EDGE_CURVE ( 'NONE', #60, #115, #211, .T. ) ;
#95 = APPROVAL_ROLE ( '' ) ;
#96 = LINE ( 'NONE', #166, #217 ) ;
#97 = PERSON_AND_ORGANIZATION ( #118, #104 ) ;
#98 = VECTOR ( 'NONE', #91, 1000.000000000000000 ) ;
#99 =( NAMED_UNIT ( * ) SI_UNIT ( $, .STERADIAN. ) SOLID_ANGLE_UNIT ( ) );
#100 = PLANE ( 'NONE',  #117 ) ;
#101 = VECTOR ( 'NONE', #37, 1000.000000000000000 ) ;
#102 = DATE_AND_TIME ( #202, #17 ) ;
#103 = CARTESIAN_POINT ( 'NONE',  ( -5.000000000000000900, 2.500000000000000900, 500.0000000000000000 ) ) ;
#104 = ORGANIZATION ( 'UNSPECIFIED', 'UNSPECIFIED', '' ) ;
#105 = ORIENTED_EDGE ( 'NONE', *, *, #67, .T. ) ;
#106 = DESIGN_CONTEXT ( 'detailed design', #80, 'design' ) ;
#107 = DIRECTION ( 'NONE',  ( 1.734723475976807100E-016, -1.000000000000000000, 0.0000000000000000000 ) ) ;
#108 = EDGE_LOOP ( 'NONE', ( #51, #181, #82, #20 ) ) ;
#109 = APPROVAL_DATE_TIME ( #157, #140 ) ;
#110 = VERTEX_POINT ( 'NONE', #26 ) ;
#111 = APPROVAL_STATUS ( 'not_yet_approved' ) ;
#112 = EDGE_CURVE ( 'NONE', #115, #88, #96, .T. ) ;
#113 = ORIENTED_EDGE ( 'NONE', *, *, #159, .T. ) ;
#114 = COORDINATED_UNIVERSAL_TIME_OFFSET ( 9, 0, .AHEAD. ) ;
#115 = VERTEX_POINT ( 'NONE', #46 ) ;
#116 = FACE_OUTER_BOUND ( 'NONE', #169, .T. ) ;
#117 = AXIS2_PLACEMENT_3D ( 'NONE', #103, #70, #55 ) ;
#118 = PERSON ( 'UNSPECIFIED', 'UNSPECIFIED', 'UNSPECIFIED', ('UNSPECIFIED'), ('UNSPECIFIED'), ('UNSPECIFIED') ) ;
#119 = ORIENTED_EDGE ( 'NONE', *, *, #7, .T. ) ;
#120 = CALENDAR_DATE ( 2017, 2, 11 ) ;
#121 = DIRECTION ( 'NONE',  ( 1.000000000000000000, 0.0000000000000000000, 0.0000000000000000000 ) ) ;
#122 = CARTESIAN_POINT ( 'NONE',  ( 5.000000000000000000, -2.499999999999999100, 500.0000000000000000 ) ) ;
#123 = DIRECTION ( 'NONE',  ( 1.000000000000000000, 0.0000000000000000000, 0.0000000000000000000 ) ) ;
#124 = LINE ( 'NONE', #223, #164 ) ;
#125 = CC_DESIGN_APPROVAL ( #140, ( #152 ) ) ;
#126 = LOCAL_TIME ( 13, 18, 50.00000000000000000, #231 ) ;
#127 = DIRECTION ( 'NONE',  ( -0.0000000000000000000, 0.0000000000000000000, 1.000000000000000000 ) ) ;
#128 = UNCERTAINTY_MEASURE_WITH_UNIT (LENGTH_MEASURE( 1.000000000000000100E-005 ), #201, 'distance_accuracy_value', 'NONE');
#129 = ADVANCED_FACE ( 'NONE', ( #214 ), #10, .F. ) ;
#130 = APPROVAL_STATUS ( 'not_yet_approved' ) ;
#131 = LINE ( 'NONE', #24, #42 ) ;
#132 = ORIENTED_EDGE ( 'NONE', *, *, #159, .F. ) ;
#133 = VECTOR ( 'NONE', #8, 1000.000000000000000 ) ;
#134 = ADVANCED_FACE ( 'NONE', ( #168 ), #74, .F. ) ;
#135 = DIRECTION ( 'NONE',  ( 1.734723475976807100E-016, -1.000000000000000000, 0.0000000000000000000 ) ) ;
#136 =( NAMED_UNIT ( * ) PLANE_ANGLE_UNIT ( ) SI_UNIT ( $, .RADIAN. ) );
#137 = ORIENTED_EDGE ( 'NONE', *, *, #21, .T. ) ;
#138 = PERSON_AND_ORGANIZATION ( #118, #104 ) ;
#139 = DIRECTION ( 'NONE',  ( -0.0000000000000000000, -0.0000000000000000000, -1.000000000000000000 ) ) ;
#140 = APPROVAL ( #130, 'UNSPECIFIED' ) ;
#141 = FACE_OUTER_BOUND ( 'NONE', #33, .T. ) ;
#142 = CC_DESIGN_PERSON_AND_ORGANIZATION_ASSIGNMENT ( #28, #192, ( #152 ) ) ;
#143 = CARTESIAN_POINT ( 'NONE',  ( 5.000000000000000000, -2.499999999999999100, -500.0000000000000000 ) ) ;
#144 = DIRECTION ( 'NONE',  ( -1.000000000000000000, -0.0000000000000000000, -0.0000000000000000000 ) ) ;
#145 = EDGE_CURVE ( 'NONE', #177, #47, #153, .T. ) ;
#146 = DIRECTION ( 'NONE',  ( 1.000000000000000000, 0.0000000000000000000, 0.0000000000000000000 ) ) ;
#147 = LINE ( 'NONE', #35, #230 ) ;
#148 = DATE_AND_TIME ( #11, #194 ) ;
#149 = APPROVAL_ROLE ( '' ) ;
#150 = VECTOR ( 'NONE', #200, 1000.000000000000000 ) ;
#151 = PERSON_AND_ORGANIZATION ( #118, #104 ) ;
#152 = PRODUCT_DEFINITION_FORMATION_WITH_SPECIFIED_SOURCE ( 'ANY', '', #216, .NOT_KNOWN. ) ;
#153 = LINE ( 'NONE', #9, #133 ) ;
#154 = ADVANCED_FACE ( 'NONE', ( #141 ), #162, .T. ) ;
#155 = PRODUCT_RELATED_PRODUCT_CATEGORY ( 'detail', '', ( #216 ) ) ;
#156 = VERTEX_POINT ( 'NONE', #143 ) ;
#157 = DATE_AND_TIME ( #215, #23 ) ;
#158 = DIRECTION ( 'NONE',  ( -1.734723475976807100E-016, 1.000000000000000000, -0.0000000000000000000 ) ) ;
#159 = EDGE_CURVE ( 'NONE', #88, #47, #90, .T. ) ;
#160 = CARTESIAN_POINT ( 'NONE',  ( -5.000000000000000000, -2.499999999999999100, 500.0000000000000000 ) ) ;
#161 = VECTOR ( 'NONE', #139, 1000.000000000000000 ) ;
#162 = PLANE ( 'NONE',  #87 ) ;
#163 = CARTESIAN_POINT ( 'NONE',  ( -5.000000000000000900, 2.500000000000000900, 500.0000000000000000 ) ) ;
#164 = VECTOR ( 'NONE', #22, 1000.000000000000000 ) ;
#165 = LOCAL_TIME ( 13, 18, 50.00000000000000000, #114 ) ;
#166 = CARTESIAN_POINT ( 'NONE',  ( -5.000000000000000900, 2.500000000000000900, 500.0000000000000000 ) ) ;
#167 = FACE_OUTER_BOUND ( 'NONE', #175, .T. ) ;
#168 = FACE_OUTER_BOUND ( 'NONE', #184, .T. ) ;
#169 = EDGE_LOOP ( 'NONE', ( #227, #132, #178, #13 ) ) ;
#170 = APPLICATION_PROTOCOL_DEFINITION ( 'international standard', 'config_control_design', 1994, #80 ) ;
#171 = ADVANCED_FACE ( 'NONE', ( #233 ), #187, .F. ) ;
#172 = SECURITY_CLASSIFICATION_LEVEL ( 'unclassified' ) ;
#173 = ORIENTED_EDGE ( 'NONE', *, *, #199, .T. ) ;
#174 = APPROVAL_PERSON_ORGANIZATION ( #32, #198, #149 ) ;
#175 = EDGE_LOOP ( 'NONE', ( #119, #182, #19, #137 ) ) ;
#176 = PRODUCT_DEFINITION ( 'UNKNOWN', '', #152, #106 ) ;
#177 = VERTEX_POINT ( 'NONE', #207 ) ;
#178 = ORIENTED_EDGE ( 'NONE', *, *, #112, .F. ) ;
#179 = DIRECTION ( 'NONE',  ( 0.0000000000000000000, 0.0000000000000000000, 1.000000000000000000 ) ) ;
#180 = CARTESIAN_POINT ( 'NONE',  ( 4.999999999999999100, 2.500000000000000900, 500.0000000000000000 ) ) ;
#181 = ORIENTED_EDGE ( 'NONE', *, *, #145, .F. ) ;
#182 = ORIENTED_EDGE ( 'NONE', *, *, #219, .F. ) ;
#183 = CARTESIAN_POINT ( 'NONE',  ( 5.000000000000000000, -2.499999999999999100, 500.0000000000000000 ) ) ;
#184 = EDGE_LOOP ( 'NONE', ( #173, #84, #31, #113 ) ) ;
#185 = CARTESIAN_POINT ( 'NONE',  ( -5.000000000000000900, 2.500000000000000900, 500.0000000000000000 ) ) ;
#186 = AXIS2_PLACEMENT_3D ( 'NONE', #73, #127, #123 ) ;
#187 = PLANE ( 'NONE',  #186 ) ;
#188 = CC_DESIGN_DATE_AND_TIME_ASSIGNMENT ( #102, #235, ( #176 ) ) ;
#189 = LINE ( 'NONE', #206, #161 ) ;
#190 = PERSON_AND_ORGANIZATION ( #118, #104 ) ;
#191 = PERSON_AND_ORGANIZATION_ROLE ( 'design_supplier' ) ;
#192 = PERSON_AND_ORGANIZATION_ROLE ( 'creator' ) ;
#193 = CC_DESIGN_SECURITY_CLASSIFICATION ( #204, ( #152 ) ) ;
#194 = LOCAL_TIME ( 13, 18, 50.00000000000000000, #52 ) ;
#195 = CC_DESIGN_APPROVAL ( #198, ( #204 ) ) ;
#196 = EDGE_LOOP ( 'NONE', ( #64, #25, #237, #212 ) ) ;
#197 = CC_DESIGN_DATE_AND_TIME_ASSIGNMENT ( #76, #48, ( #204 ) ) ;
#198 = APPROVAL ( #111, 'UNSPECIFIED' ) ;
#199 = EDGE_CURVE ( 'NONE', #47, #236, #147, .T. ) ;
#200 = DIRECTION ( 'NONE',  ( -0.0000000000000000000, -0.0000000000000000000, -1.000000000000000000 ) ) ;
#201 =( LENGTH_UNIT ( ) NAMED_UNIT ( * ) SI_UNIT ( .MILLI., .METRE. ) );
#202 = CALENDAR_DATE ( 2017, 2, 11 ) ;
#203 = CC_DESIGN_PERSON_AND_ORGANIZATION_ASSIGNMENT ( #222, #14, ( #204 ) ) ;
#204 = SECURITY_CLASSIFICATION ( '', '', #172 ) ;
#205 = DIRECTION ( 'NONE',  ( 0.0000000000000000000, -0.0000000000000000000, 1.000000000000000000 ) ) ;
#206 = CARTESIAN_POINT ( 'NONE',  ( -5.000000000000000000, -2.499999999999999100, 500.0000000000000000 ) ) ;
#207 = CARTESIAN_POINT ( 'NONE',  ( 4.999999999999999100, 2.500000000000000900, -500.0000000000000000 ) ) ;
#208 = DIRECTION ( 'NONE',  ( -0.0000000000000000000, -0.0000000000000000000, -1.000000000000000000 ) ) ;
#209 = COORDINATED_UNIVERSAL_TIME_OFFSET ( 9, 0, .AHEAD. ) ;
#210 = PRODUCT_DEFINITION_SHAPE ( 'NONE', 'NONE',  #176 ) ;
#211 = LINE ( 'NONE', #71, #50 ) ;
#212 = ORIENTED_EDGE ( 'NONE', *, *, #219, .T. ) ;
#213 = APPROVAL_STATUS ( 'not_yet_approved' ) ;
#214 = FACE_OUTER_BOUND ( 'NONE', #196, .T. ) ;
#215 = CALENDAR_DATE ( 2017, 2, 11 ) ;
#216 = PRODUCT ( 'sone3D', 'sone3D', '', ( #221 ) ) ;
#217 = VECTOR ( 'NONE', #144, 1000.000000000000000 ) ;
#218 = ORIENTED_EDGE ( 'NONE', *, *, #112, .T. ) ;
#219 = EDGE_CURVE ( 'NONE', #60, #156, #62, .T. ) ;
#220 = VECTOR ( 'NONE', #57, 1000.000000000000000 ) ;
#221 = MECHANICAL_CONTEXT ( 'NONE', #2, 'mechanical' ) ;
#222 = PERSON_AND_ORGANIZATION ( #118, #104 ) ;
#223 = CARTESIAN_POINT ( 'NONE',  ( -5.000000000000000900, 2.500000000000000900, 500.0000000000000000 ) ) ;
#224 = CARTESIAN_POINT ( 'NONE',  ( 0.0000000000000000000, 0.0000000000000000000, 0.0000000000000000000 ) ) ;
#225 = DIRECTION ( 'NONE',  ( 0.0000000000000000000, 1.000000000000000000, 0.0000000000000000000 ) ) ;
#226 = LINE ( 'NONE', #160, #101 ) ;
#227 = ORIENTED_EDGE ( 'NONE', *, *, #145, .T. ) ;
#228 = CC_DESIGN_PERSON_AND_ORGANIZATION_ASSIGNMENT ( #66, #191, ( #152 ) ) ;
#229 = CARTESIAN_POINT ( 'NONE',  ( 0.0000000000000000000, 0.0000000000000000000, 500.0000000000000000 ) ) ;
#230 = VECTOR ( 'NONE', #135, 1000.000000000000000 ) ;
#231 = COORDINATED_UNIVERSAL_TIME_OFFSET ( 9, 0, .AHEAD. ) ;
#232 = CARTESIAN_POINT ( 'NONE',  ( -5.000000000000000900, 2.500000000000000900, 500.0000000000000000 ) ) ;
#233 = FACE_OUTER_BOUND ( 'NONE', #108, .T. ) ;
#234 = MANIFOLD_SOLID_BREP ( 'ÎÞ½ - µoµ1', #83 ) ;
#235 = DATE_TIME_ROLE ( 'creation_date' ) ;
#236 = VERTEX_POINT ( 'NONE', #54 ) ;
#237 = ORIENTED_EDGE ( 'NONE', *, *, #94, .F. ) ;
ENDSEC;
END-ISO-10303-21;
