ISO-10303-21;
HEADER;
FILE_DESCRIPTION (( 'STEP AP203' ),
    '1' );
FILE_NAME ('sone3D.STEP',
    '2017-11-02T04:20:54',
    ( '' ),
    ( '' ),
    'SwSTEP 2.0',
    'SolidWorks 2014',
    '' );
FILE_SCHEMA (( 'CONFIG_CONTROL_DESIGN' ));
ENDSEC;

DATA;
#1 = LINE ( 'NONE', #48, #159 ) ;
#2 = DATE_AND_TIME ( #8, #11 ) ;
#3 = CC_DESIGN_SECURITY_CLASSIFICATION ( #36, ( #67 ) ) ;
#4 = LINE ( 'NONE', #144, #184 ) ;
#5 = PERSON_AND_ORGANIZATION_ROLE ( 'creator' ) ;
#6 = MECHANICAL_CONTEXT ( 'NONE', #227, 'mechanical' ) ;
#7 = CC_DESIGN_APPROVAL ( #14, ( #36 ) ) ;
#8 = CALENDAR_DATE ( 2017, 2, 11 ) ;
#9 = DIRECTION ( 'NONE',  ( -0.0000000000000000000, 0.0000000000000000000, 1.000000000000000000 ) ) ;
#10 = VECTOR ( 'NONE', #171, 1000.000000000000000 ) ;
#11 = LOCAL_TIME ( 13, 20, 54.00000000000000000, #13 ) ;
#12 = DIRECTION ( 'NONE',  ( 1.734723475976807100E-016, -1.000000000000000000, 0.0000000000000000000 ) ) ;
#13 = COORDINATED_UNIVERSAL_TIME_OFFSET ( 9, 0, .AHEAD. ) ;
#14 = APPROVAL ( #164, 'UNSPECIFIED' ) ;
#15 = DIRECTION ( 'NONE',  ( 1.000000000000000000, 0.0000000000000000000, 0.0000000000000000000 ) ) ;
#16 = DATE_TIME_ROLE ( 'classification_date' ) ;
#17 = CC_DESIGN_DATE_AND_TIME_ASSIGNMENT ( #24, #16, ( #36 ) ) ;
#18 = ORIENTED_EDGE ( 'NONE', *, *, #162, .F. ) ;
#19 = DIRECTION ( 'NONE',  ( 1.734723475976807100E-016, -1.000000000000000000, 0.0000000000000000000 ) ) ;
#20 = AXIS2_PLACEMENT_3D ( 'NONE', #233, #140, #12 ) ;
#21 = APPROVAL_PERSON_ORGANIZATION ( #22, #14, #43 ) ;
#22 = PERSON_AND_ORGANIZATION ( #99, #82 ) ;
#23 = AXIS2_PLACEMENT_3D ( 'NONE', #29, #78, #188 ) ;
#24 = DATE_AND_TIME ( #31, #32 ) ;
#25 = AXIS2_PLACEMENT_3D ( 'NONE', #135, #9, #158 ) ;
#26 = VERTEX_POINT ( 'NONE', #139 ) ;
#27 = SECURITY_CLASSIFICATION_LEVEL ( 'unclassified' ) ;
#28 = APPLICATION_CONTEXT ( 'configuration controlled 3d designs of mechanical parts and assemblies' ) ;
#29 = CARTESIAN_POINT ( 'NONE',  ( -10.00000000000000000, 4.999999999999997300, 500.0000000000000000 ) ) ;
#30 = PRODUCT_RELATED_PRODUCT_CATEGORY ( 'detail', '', ( #224 ) ) ;
#31 = CALENDAR_DATE ( 2017, 2, 11 ) ;
#32 = LOCAL_TIME ( 13, 20, 54.00000000000000000, #33 ) ;
#33 = COORDINATED_UNIVERSAL_TIME_OFFSET ( 9, 0, .AHEAD. ) ;
#34 = CC_DESIGN_PERSON_AND_ORGANIZATION_ASSIGNMENT ( #93, #168, ( #36 ) ) ;
#35 = CARTESIAN_POINT ( 'NONE',  ( -9.999999999999998200, -5.000000000000002700, -500.0000000000000000 ) ) ;
#36 = SECURITY_CLASSIFICATION ( '', '', #27 ) ;
#37 = PERSON_AND_ORGANIZATION ( #99, #82 ) ;
#38 = APPROVAL_DATE_TIME ( #41, #54 ) ;
#39 = LINE ( 'NONE', #189, #113 ) ;
#40 = CC_DESIGN_PERSON_AND_ORGANIZATION_ASSIGNMENT ( #141, #155, ( #67 ) ) ;
#41 = DATE_AND_TIME ( #42, #44 ) ;
#42 = CALENDAR_DATE ( 2017, 2, 11 ) ;
#43 = APPROVAL_ROLE ( '' ) ;
#44 = LOCAL_TIME ( 13, 20, 54.00000000000000000, #47 ) ;
#45 = CARTESIAN_POINT ( 'NONE',  ( 0.0000000000000000000, 0.0000000000000000000, 0.0000000000000000000 ) ) ;
#46 = CC_DESIGN_PERSON_AND_ORGANIZATION_ASSIGNMENT ( #37, #5, ( #67 ) ) ;
#47 = COORDINATED_UNIVERSAL_TIME_OFFSET ( 9, 0, .AHEAD. ) ;
#48 = CARTESIAN_POINT ( 'NONE',  ( -9.999999999999998200, -5.000000000000002700, 500.0000000000000000 ) ) ;
#49 = APPROVAL_PERSON_ORGANIZATION ( #50, #54, #136 ) ;
#50 = PERSON_AND_ORGANIZATION ( #99, #82 ) ;
#51 = EDGE_CURVE ( 'NONE', #148, #146, #105, .T. ) ;
#52 = DATE_AND_TIME ( #57, #58 ) ;
#53 = CC_DESIGN_APPROVAL ( #54, ( #67 ) ) ;
#54 = APPROVAL ( #229, 'UNSPECIFIED' ) ;
#55 = APPROVAL_STATUS ( 'not_yet_approved' ) ;
#56 = PLANE ( 'NONE',  #23 ) ;
#57 = CALENDAR_DATE ( 2017, 2, 11 ) ;
#58 = LOCAL_TIME ( 13, 20, 54.00000000000000000, #222 ) ;
#59 = CARTESIAN_POINT ( 'NONE',  ( 10.00000000000000200, -5.000000000000002700, 500.0000000000000000 ) ) ;
#60 = CARTESIAN_POINT ( 'NONE',  ( -10.00000000000000000, 4.999999999999997300, -500.0000000000000000 ) ) ;
#61 = DATE_AND_TIME ( #62, #69 ) ;
#62 = CALENDAR_DATE ( 2017, 2, 11 ) ;
#63 = EDGE_CURVE ( 'NONE', #186, #197, #213, .T. ) ;
#64 = DIRECTION ( 'NONE',  ( -1.734723475976807100E-016, 1.000000000000000000, -0.0000000000000000000 ) ) ;
#65 = ADVANCED_FACE ( 'NONE', ( #134 ), #66, .F. ) ;
#66 = PLANE ( 'NONE',  #85 ) ;
#67 = PRODUCT_DEFINITION_FORMATION_WITH_SPECIFIED_SOURCE ( 'ANY', '', #224, .NOT_KNOWN. ) ;
#68 = CARTESIAN_POINT ( 'NONE',  ( 0.0000000000000000000, 0.0000000000000000000, -500.0000000000000000 ) ) ;
#69 = LOCAL_TIME ( 13, 20, 54.00000000000000000, #72 ) ;
#70 = DIRECTION ( 'NONE',  ( 1.000000000000000000, 1.734723475976807100E-016, -0.0000000000000000000 ) ) ;
#71 = VECTOR ( 'NONE', #161, 1000.000000000000000 ) ;
#72 = COORDINATED_UNIVERSAL_TIME_OFFSET ( 9, 0, .AHEAD. ) ;
#73 = APPROVAL_PERSON_ORGANIZATION ( #151, #111, #182 ) ;
#74 = ORIENTED_EDGE ( 'NONE', *, *, #206, .T. ) ;
#75 =( GEOMETRIC_REPRESENTATION_CONTEXT ( 3 ) GLOBAL_UNCERTAINTY_ASSIGNED_CONTEXT ( ( #230 ) ) GLOBAL_UNIT_ASSIGNED_CONTEXT ( ( #201, #108, #220 ) ) REPRESENTATION_CONTEXT ( 'NONE', 'WORKASPACE' ) );
#76 = ADVANCED_FACE ( 'NONE', ( #147 ), #193, .F. ) ;
#77 = ADVANCED_FACE ( 'NONE', ( #192 ), #127, .F. ) ;
#78 = DIRECTION ( 'NONE',  ( 0.0000000000000000000, -1.000000000000000000, 0.0000000000000000000 ) ) ;
#79 = DIRECTION ( 'NONE',  ( -1.000000000000000000, -0.0000000000000000000, -0.0000000000000000000 ) ) ;
#80 = ADVANCED_FACE ( 'NONE', ( #153 ), #116, .T. ) ;
#81 = AXIS2_PLACEMENT_3D ( 'NONE', #45, #190, #133 ) ;
#82 = ORGANIZATION ( 'UNSPECIFIED', 'UNSPECIFIED', '' ) ;
#83 = EDGE_LOOP ( 'NONE', ( #174, #130, #167, #125 ) ) ;
#84 = ORIENTED_EDGE ( 'NONE', *, *, #214, .F. ) ;
#85 = AXIS2_PLACEMENT_3D ( 'NONE', #198, #70, #165 ) ;
#86 = CARTESIAN_POINT ( 'NONE',  ( -9.999999999999998200, -5.000000000000002700, 500.0000000000000000 ) ) ;
#87 = VECTOR ( 'NONE', #79, 1000.000000000000000 ) ;
#88 = ORIENTED_EDGE ( 'NONE', *, *, #94, .F. ) ;
#89 = AXIS2_PLACEMENT_3D ( 'NONE', #68, #221, #97 ) ;
#90 = ADVANCED_FACE ( 'NONE', ( #211 ), #56, .F. ) ;
#91 = EDGE_CURVE ( 'NONE', #26, #186, #160, .T. ) ;
#92 = VERTEX_POINT ( 'NONE', #199 ) ;
#93 = PERSON_AND_ORGANIZATION ( #99, #82 ) ;
#94 = EDGE_CURVE ( 'NONE', #126, #148, #1, .T. ) ;
#95 = CARTESIAN_POINT ( 'NONE',  ( 10.00000000000000200, -5.000000000000002700, 500.0000000000000000 ) ) ;
#96 = VECTOR ( 'NONE', #115, 1000.000000000000000 ) ;
#97 = DIRECTION ( 'NONE',  ( 1.000000000000000000, 0.0000000000000000000, 0.0000000000000000000 ) ) ;
#98 = VECTOR ( 'NONE', #183, 1000.000000000000000 ) ;
#99 = PERSON ( 'UNSPECIFIED', 'UNSPECIFIED', 'UNSPECIFIED', ('UNSPECIFIED'), ('UNSPECIFIED'), ('UNSPECIFIED') ) ;
#100 = PRODUCT_DEFINITION_SHAPE ( 'NONE', 'NONE',  #107 ) ;
#101 = EDGE_CURVE ( 'NONE', #26, #143, #129, .T. ) ;
#102 = ORIENTED_EDGE ( 'NONE', *, *, #63, .T. ) ;
#103 = ORIENTED_EDGE ( 'NONE', *, *, #152, .T. ) ;
#104 = ADVANCED_FACE ( 'NONE', ( #138 ), #121, .F. ) ;
#105 = LINE ( 'NONE', #59, #10 ) ;
#106 = CC_DESIGN_PERSON_AND_ORGANIZATION_ASSIGNMENT ( #215, #157, ( #224 ) ) ;
#107 = PRODUCT_DEFINITION ( 'UNKNOWN', '', #67, #195 ) ;
#108 =( NAMED_UNIT ( * ) PLANE_ANGLE_UNIT ( ) SI_UNIT ( $, .RADIAN. ) );
#109 = ORIENTED_EDGE ( 'NONE', *, *, #214, .T. ) ;
#110 = DIRECTION ( 'NONE',  ( 0.0000000000000000000, -0.0000000000000000000, 1.000000000000000000 ) ) ;
#111 = APPROVAL ( #55, 'UNSPECIFIED' ) ;
#112 = ORIENTED_EDGE ( 'NONE', *, *, #228, .T. ) ;
#113 = VECTOR ( 'NONE', #124, 1000.000000000000000 ) ;
#114 = CC_DESIGN_APPROVAL ( #111, ( #107 ) ) ;
#115 = DIRECTION ( 'NONE',  ( -1.734723475976807100E-016, 1.000000000000000000, -0.0000000000000000000 ) ) ;
#116 = PLANE ( 'NONE',  #25 ) ;
#117 = DATE_TIME_ROLE ( 'creation_date' ) ;
#118 = CC_DESIGN_DATE_AND_TIME_ASSIGNMENT ( #52, #117, ( #107 ) ) ;
#119 = PERSON_AND_ORGANIZATION ( #99, #82 ) ;
#120 = LINE ( 'NONE', #236, #176 ) ;
#121 = PLANE ( 'NONE',  #20 ) ;
#122 = CC_DESIGN_PERSON_AND_ORGANIZATION_ASSIGNMENT ( #119, #212, ( #107 ) ) ;
#123 = DIRECTION ( 'NONE',  ( -0.0000000000000000000, -0.0000000000000000000, -1.000000000000000000 ) ) ;
#124 = DIRECTION ( 'NONE',  ( -0.0000000000000000000, -0.0000000000000000000, -1.000000000000000000 ) ) ;
#125 = ORIENTED_EDGE ( 'NONE', *, *, #137, .F. ) ;
#126 = VERTEX_POINT ( 'NONE', #216 ) ;
#127 = PLANE ( 'NONE',  #89 ) ;
#128 = ORIENTED_EDGE ( 'NONE', *, *, #208, .T. ) ;
#129 = LINE ( 'NONE', #163, #87 ) ;
#130 = ORIENTED_EDGE ( 'NONE', *, *, #63, .F. ) ;
#131 = MANIFOLD_SOLID_BREP ( 'ÎÞ½ - µoµ1', #219 ) ;
#132 = ORIENTED_EDGE ( 'NONE', *, *, #51, .T. ) ;
#133 = DIRECTION ( 'NONE',  ( 1.000000000000000000, 0.0000000000000000000, 0.0000000000000000000 ) ) ;
#134 = FACE_OUTER_BOUND ( 'NONE', #175, .T. ) ;
#135 = CARTESIAN_POINT ( 'NONE',  ( 0.0000000000000000000, 0.0000000000000000000, 500.0000000000000000 ) ) ;
#136 = APPROVAL_ROLE ( '' ) ;
#137 = EDGE_CURVE ( 'NONE', #92, #146, #210, .T. ) ;
#138 = FACE_OUTER_BOUND ( 'NONE', #150, .T. ) ;
#139 = CARTESIAN_POINT ( 'NONE',  ( 10.00000000000000000, 4.999999999999997300, 500.0000000000000000 ) ) ;
#140 = DIRECTION ( 'NONE',  ( -1.000000000000000000, -1.734723475976807100E-016, 0.0000000000000000000 ) ) ;
#141 = PERSON_AND_ORGANIZATION ( #99, #82 ) ;
#142 = LINE ( 'NONE', #235, #96 ) ;
#143 = VERTEX_POINT ( 'NONE', #180 ) ;
#144 = CARTESIAN_POINT ( 'NONE',  ( 10.00000000000000000, 4.999999999999997300, 500.0000000000000000 ) ) ;
#145 = AXIS2_PLACEMENT_3D ( 'NONE', #86, #202, #110 ) ;
#146 = VERTEX_POINT ( 'NONE', #194 ) ;
#147 = FACE_OUTER_BOUND ( 'NONE', #205, .T. ) ;
#148 = VERTEX_POINT ( 'NONE', #95 ) ;
#149 = VECTOR ( 'NONE', #200, 1000.000000000000000 ) ;
#150 = EDGE_LOOP ( 'NONE', ( #103, #172, #170, #132 ) ) ;
#151 = PERSON_AND_ORGANIZATION ( #99, #82 ) ;
#152 = EDGE_CURVE ( 'NONE', #146, #186, #142, .T. ) ;
#153 = FACE_OUTER_BOUND ( 'NONE', #237, .T. ) ;
#154 = LINE ( 'NONE', #226, #179 ) ;
#155 = PERSON_AND_ORGANIZATION_ROLE ( 'design_supplier' ) ;
#156 = DIRECTION ( 'NONE',  ( -0.0000000000000000000, -0.0000000000000000000, -1.000000000000000000 ) ) ;
#157 = PERSON_AND_ORGANIZATION_ROLE ( 'design_owner' ) ;
#158 = DIRECTION ( 'NONE',  ( 1.000000000000000000, 0.0000000000000000000, 0.0000000000000000000 ) ) ;
#159 = VECTOR ( 'NONE', #15, 1000.000000000000000 ) ;
#160 = LINE ( 'NONE', #217, #185 ) ;
#161 = DIRECTION ( 'NONE',  ( 1.000000000000000000, 0.0000000000000000000, 0.0000000000000000000 ) ) ;
#162 = EDGE_CURVE ( 'NONE', #143, #197, #154, .T. ) ;
#163 = CARTESIAN_POINT ( 'NONE',  ( -10.00000000000000000, 4.999999999999997300, 500.0000000000000000 ) ) ;
#164 = APPROVAL_STATUS ( 'not_yet_approved' ) ;
#165 = DIRECTION ( 'NONE',  ( -1.734723475976807100E-016, 1.000000000000000000, 0.0000000000000000000 ) ) ;
#166 = LINE ( 'NONE', #60, #149 ) ;
#167 = ORIENTED_EDGE ( 'NONE', *, *, #152, .F. ) ;
#168 = PERSON_AND_ORGANIZATION_ROLE ( 'classification_officer' ) ;
#169 = APPLICATION_PROTOCOL_DEFINITION ( 'international standard', 'config_control_design', 1994, #28 ) ;
#170 = ORIENTED_EDGE ( 'NONE', *, *, #228, .F. ) ;
#171 = DIRECTION ( 'NONE',  ( -0.0000000000000000000, -0.0000000000000000000, -1.000000000000000000 ) ) ;
#172 = ORIENTED_EDGE ( 'NONE', *, *, #91, .F. ) ;
#173 = CARTESIAN_POINT ( 'NONE',  ( 10.00000000000000000, 4.999999999999997300, -500.0000000000000000 ) ) ;
#174 = ORIENTED_EDGE ( 'NONE', *, *, #206, .F. ) ;
#175 = EDGE_LOOP ( 'NONE', ( #74, #178, #84, #218 ) ) ;
#176 = VECTOR ( 'NONE', #19, 1000.000000000000000 ) ;
#177 = ORIENTED_EDGE ( 'NONE', *, *, #137, .T. ) ;
#178 = ORIENTED_EDGE ( 'NONE', *, *, #208, .F. ) ;
#179 = VECTOR ( 'NONE', #156, 1000.000000000000000 ) ;
#180 = CARTESIAN_POINT ( 'NONE',  ( -10.00000000000000000, 4.999999999999997300, 500.0000000000000000 ) ) ;
#181 = ORIENTED_EDGE ( 'NONE', *, *, #94, .T. ) ;
#182 = APPROVAL_ROLE ( '' ) ;
#183 = DIRECTION ( 'NONE',  ( -1.000000000000000000, -0.0000000000000000000, -0.0000000000000000000 ) ) ;
#184 = VECTOR ( 'NONE', #64, 1000.000000000000000 ) ;
#185 = VECTOR ( 'NONE', #123, 1000.000000000000000 ) ;
#186 = VERTEX_POINT ( 'NONE', #173 ) ;
#187 = APPROVAL_DATE_TIME ( #2, #14 ) ;
#188 = DIRECTION ( 'NONE',  ( 0.0000000000000000000, -0.0000000000000000000, -1.000000000000000000 ) ) ;
#189 = CARTESIAN_POINT ( 'NONE',  ( -9.999999999999998200, -5.000000000000002700, 500.0000000000000000 ) ) ;
#190 = DIRECTION ( 'NONE',  ( 0.0000000000000000000, 0.0000000000000000000, 1.000000000000000000 ) ) ;
#191 = ORIENTED_EDGE ( 'NONE', *, *, #101, .F. ) ;
#192 = FACE_OUTER_BOUND ( 'NONE', #83, .T. ) ;
#193 = PLANE ( 'NONE',  #145 ) ;
#194 = CARTESIAN_POINT ( 'NONE',  ( 10.00000000000000200, -5.000000000000002700, -500.0000000000000000 ) ) ;
#195 = DESIGN_CONTEXT ( 'detailed design', #28, 'design' ) ;
#196 = EDGE_LOOP ( 'NONE', ( #102, #18, #191, #225 ) ) ;
#197 = VERTEX_POINT ( 'NONE', #207 ) ;
#198 = CARTESIAN_POINT ( 'NONE',  ( -10.00000000000000000, 4.999999999999997300, 500.0000000000000000 ) ) ;
#199 = CARTESIAN_POINT ( 'NONE',  ( -9.999999999999998200, -5.000000000000002700, -500.0000000000000000 ) ) ;
#200 = DIRECTION ( 'NONE',  ( 1.734723475976807100E-016, -1.000000000000000000, 0.0000000000000000000 ) ) ;
#201 =( LENGTH_UNIT ( ) NAMED_UNIT ( * ) SI_UNIT ( .MILLI., .METRE. ) );
#202 = DIRECTION ( 'NONE',  ( 0.0000000000000000000, 1.000000000000000000, 0.0000000000000000000 ) ) ;
#203 = ADVANCED_BREP_SHAPE_REPRESENTATION ( 'sone3D', ( #131, #81 ), #75 ) ;
#204 = APPROVAL_DATE_TIME ( #61, #111 ) ;
#205 = EDGE_LOOP ( 'NONE', ( #177, #223, #88, #128 ) ) ;
#206 = EDGE_CURVE ( 'NONE', #197, #92, #166, .T. ) ;
#207 = CARTESIAN_POINT ( 'NONE',  ( -10.00000000000000000, 4.999999999999997300, -500.0000000000000000 ) ) ;
#208 = EDGE_CURVE ( 'NONE', #126, #92, #39, .T. ) ;
#209 = APPLICATION_PROTOCOL_DEFINITION ( 'international standard', 'config_control_design', 1994, #227 ) ;
#210 = LINE ( 'NONE', #35, #71 ) ;
#211 = FACE_OUTER_BOUND ( 'NONE', #196, .T. ) ;
#212 = PERSON_AND_ORGANIZATION_ROLE ( 'creator' ) ;
#213 = LINE ( 'NONE', #232, #98 ) ;
#214 = EDGE_CURVE ( 'NONE', #143, #126, #120, .T. ) ;
#215 = PERSON_AND_ORGANIZATION ( #99, #82 ) ;
#216 = CARTESIAN_POINT ( 'NONE',  ( -9.999999999999998200, -5.000000000000002700, 500.0000000000000000 ) ) ;
#217 = CARTESIAN_POINT ( 'NONE',  ( 10.00000000000000000, 4.999999999999997300, 500.0000000000000000 ) ) ;
#218 = ORIENTED_EDGE ( 'NONE', *, *, #162, .T. ) ;
#219 = CLOSED_SHELL ( 'NONE', ( #65, #76, #104, #90, #80, #77 ) ) ;
#220 =( NAMED_UNIT ( * ) SI_UNIT ( $, .STERADIAN. ) SOLID_ANGLE_UNIT ( ) );
#221 = DIRECTION ( 'NONE',  ( -0.0000000000000000000, 0.0000000000000000000, 1.000000000000000000 ) ) ;
#222 = COORDINATED_UNIVERSAL_TIME_OFFSET ( 9, 0, .AHEAD. ) ;
#223 = ORIENTED_EDGE ( 'NONE', *, *, #51, .F. ) ;
#224 = PRODUCT ( 'sone3D', 'sone3D', '', ( #6 ) ) ;
#225 = ORIENTED_EDGE ( 'NONE', *, *, #91, .T. ) ;
#226 = CARTESIAN_POINT ( 'NONE',  ( -10.00000000000000000, 4.999999999999997300, 500.0000000000000000 ) ) ;
#227 = APPLICATION_CONTEXT ( 'configuration controlled 3d designs of mechanical parts and assemblies' ) ;
#228 = EDGE_CURVE ( 'NONE', #148, #26, #4, .T. ) ;
#229 = APPROVAL_STATUS ( 'not_yet_approved' ) ;
#230 = UNCERTAINTY_MEASURE_WITH_UNIT (LENGTH_MEASURE( 1.000000000000000100E-005 ), #201, 'distance_accuracy_value', 'NONE');
#231 = SHAPE_DEFINITION_REPRESENTATION ( #100, #203 ) ;
#232 = CARTESIAN_POINT ( 'NONE',  ( -10.00000000000000000, 4.999999999999997300, -500.0000000000000000 ) ) ;
#233 = CARTESIAN_POINT ( 'NONE',  ( 10.00000000000000000, 4.999999999999997300, 500.0000000000000000 ) ) ;
#234 = ORIENTED_EDGE ( 'NONE', *, *, #101, .T. ) ;
#235 = CARTESIAN_POINT ( 'NONE',  ( 10.00000000000000000, 4.999999999999997300, -500.0000000000000000 ) ) ;
#236 = CARTESIAN_POINT ( 'NONE',  ( -10.00000000000000000, 4.999999999999997300, 500.0000000000000000 ) ) ;
#237 = EDGE_LOOP ( 'NONE', ( #109, #181, #112, #234 ) ) ;
ENDSEC;
END-ISO-10303-21;
