ISO-10303-21;
HEADER;
FILE_DESCRIPTION (( 'STEP AP203' ),
    '1' );
FILE_NAME ('sone3D.STEP',
    '2017-11-02T04:20:31',
    ( '' ),
    ( '' ),
    'SwSTEP 2.0',
    'SolidWorks 2014',
    '' );
FILE_SCHEMA (( 'CONFIG_CONTROL_DESIGN' ));
ENDSEC;

DATA;
#1 = EDGE_LOOP ( 'NONE', ( #48, #136, #144, #175 ) ) ;
#2 = CC_DESIGN_PERSON_AND_ORGANIZATION_ASSIGNMENT ( #117, #226, ( #147 ) ) ;
#3 = CARTESIAN_POINT ( 'NONE',  ( -7.499999999999997300, -5.000000000000000000, -500.0000000000000000 ) ) ;
#4 = DIRECTION ( 'NONE',  ( 8.673617379884035500E-017, -1.000000000000000000, 0.0000000000000000000 ) ) ;
#5 = CARTESIAN_POINT ( 'NONE',  ( -7.499999999999999100, 5.000000000000000000, -500.0000000000000000 ) ) ;
#6 = APPLICATION_PROTOCOL_DEFINITION ( 'international standard', 'config_control_design', 1994, #121 ) ;
#7 = DIRECTION ( 'NONE',  ( 1.734723475976807100E-016, -1.000000000000000000, 0.0000000000000000000 ) ) ;
#8 = PRODUCT_DEFINITION ( 'UNKNOWN', '', #207, #19 ) ;
#9 = VERTEX_POINT ( 'NONE', #88 ) ;
#10 = PLANE ( 'NONE',  #109 ) ;
#11 = VERTEX_POINT ( 'NONE', #213 ) ;
#12 = SECURITY_CLASSIFICATION_LEVEL ( 'unclassified' ) ;
#13 = LOCAL_TIME ( 13, 20, 31.00000000000000000, #92 ) ;
#14 = CC_DESIGN_APPROVAL ( #209, ( #8 ) ) ;
#15 = APPROVAL_STATUS ( 'not_yet_approved' ) ;
#16 = DIRECTION ( 'NONE',  ( -0.0000000000000000000, 0.0000000000000000000, 1.000000000000000000 ) ) ;
#17 = AXIS2_PLACEMENT_3D ( 'NONE', #145, #219, #110 ) ;
#18 = ADVANCED_FACE ( 'NONE', ( #163 ), #230, .T. ) ;
#19 = DESIGN_CONTEXT ( 'detailed design', #121, 'design' ) ;
#20 = UNCERTAINTY_MEASURE_WITH_UNIT (LENGTH_MEASURE( 1.000000000000000100E-005 ), #212, 'distance_accuracy_value', 'NONE');
#21 = LINE ( 'NONE', #180, #81 ) ;
#22 = COORDINATED_UNIVERSAL_TIME_OFFSET ( 9, 0, .AHEAD. ) ;
#23 = APPROVAL_DATE_TIME ( #38, #141 ) ;
#24 = CARTESIAN_POINT ( 'NONE',  ( -7.499999999999997300, -5.000000000000000000, 500.0000000000000000 ) ) ;
#25 = APPROVAL_ROLE ( '' ) ;
#26 = DIRECTION ( 'NONE',  ( -8.673617379884035500E-017, 1.000000000000000000, -0.0000000000000000000 ) ) ;
#27 = DIRECTION ( 'NONE',  ( 0.0000000000000000000, -1.000000000000000000, 0.0000000000000000000 ) ) ;
#28 = FACE_OUTER_BOUND ( 'NONE', #134, .T. ) ;
#29 = VECTOR ( 'NONE', #198, 1000.000000000000000 ) ;
#30 = LOCAL_TIME ( 13, 20, 31.00000000000000000, #172 ) ;
#31 = AXIS2_PLACEMENT_3D ( 'NONE', #177, #120, #4 ) ;
#32 =( GEOMETRIC_REPRESENTATION_CONTEXT ( 3 ) GLOBAL_UNCERTAINTY_ASSIGNED_CONTEXT ( ( #20 ) ) GLOBAL_UNIT_ASSIGNED_CONTEXT ( ( #212, #166, #56 ) ) REPRESENTATION_CONTEXT ( 'NONE', 'WORKASPACE' ) );
#33 = VECTOR ( 'NONE', #63, 1000.000000000000000 ) ;
#34 = ORIENTED_EDGE ( 'NONE', *, *, #139, .F. ) ;
#35 = DATE_TIME_ROLE ( 'classification_date' ) ;
#36 = AXIS2_PLACEMENT_3D ( 'NONE', #24, #158, #46 ) ;
#37 = CLOSED_SHELL ( 'NONE', ( #71, #82, #115, #43, #18, #55 ) ) ;
#38 = DATE_AND_TIME ( #206, #13 ) ;
#39 = ORGANIZATION ( 'UNSPECIFIED', 'UNSPECIFIED', '' ) ;
#40 = CC_DESIGN_DATE_AND_TIME_ASSIGNMENT ( #149, #49, ( #8 ) ) ;
#41 = CALENDAR_DATE ( 2017, 2, 11 ) ;
#42 = CARTESIAN_POINT ( 'NONE',  ( 7.500000000000000900, 5.000000000000000000, -500.0000000000000000 ) ) ;
#43 = ADVANCED_FACE ( 'NONE', ( #191 ), #10, .F. ) ;
#44 = COORDINATED_UNIVERSAL_TIME_OFFSET ( 9, 0, .AHEAD. ) ;
#45 = LOCAL_TIME ( 13, 20, 31.00000000000000000, #22 ) ;
#46 = DIRECTION ( 'NONE',  ( 0.0000000000000000000, -0.0000000000000000000, 1.000000000000000000 ) ) ;
#47 = CARTESIAN_POINT ( 'NONE',  ( -7.499999999999999100, 5.000000000000000000, -500.0000000000000000 ) ) ;
#48 = ORIENTED_EDGE ( 'NONE', *, *, #132, .T. ) ;
#49 = DATE_TIME_ROLE ( 'creation_date' ) ;
#50 = AXIS2_PLACEMENT_3D ( 'NONE', #79, #204, #98 ) ;
#51 = AXIS2_PLACEMENT_3D ( 'NONE', #160, #210, #124 ) ;
#52 = CARTESIAN_POINT ( 'NONE',  ( -7.499999999999999100, 5.000000000000000000, 500.0000000000000000 ) ) ;
#53 = EDGE_LOOP ( 'NONE', ( #194, #170, #215, #138 ) ) ;
#54 = PERSON_AND_ORGANIZATION ( #218, #39 ) ;
#55 = ADVANCED_FACE ( 'NONE', ( #221 ), #105, .F. ) ;
#56 =( NAMED_UNIT ( * ) SI_UNIT ( $, .STERADIAN. ) SOLID_ANGLE_UNIT ( ) );
#57 = DATE_AND_TIME ( #153, #211 ) ;
#58 = LINE ( 'NONE', #52, #89 ) ;
#59 = CC_DESIGN_PERSON_AND_ORGANIZATION_ASSIGNMENT ( #54, #159, ( #8 ) ) ;
#60 = VECTOR ( 'NONE', #195, 1000.000000000000000 ) ;
#61 = DIRECTION ( 'NONE',  ( -0.0000000000000000000, -0.0000000000000000000, -1.000000000000000000 ) ) ;
#62 = DIRECTION ( 'NONE',  ( 1.000000000000000000, 0.0000000000000000000, 0.0000000000000000000 ) ) ;
#63 = DIRECTION ( 'NONE',  ( -0.0000000000000000000, -0.0000000000000000000, -1.000000000000000000 ) ) ;
#64 = CARTESIAN_POINT ( 'NONE',  ( -7.499999999999999100, 5.000000000000000000, 500.0000000000000000 ) ) ;
#65 = APPROVAL_ROLE ( '' ) ;
#66 = CARTESIAN_POINT ( 'NONE',  ( -7.499999999999997300, -5.000000000000000000, -500.0000000000000000 ) ) ;
#67 = FACE_OUTER_BOUND ( 'NONE', #178, .T. ) ;
#68 = ORIENTED_EDGE ( 'NONE', *, *, #132, .F. ) ;
#69 = LINE ( 'NONE', #42, #60 ) ;
#70 = AXIS2_PLACEMENT_3D ( 'NONE', #126, #16, #154 ) ;
#71 = ADVANCED_FACE ( 'NONE', ( #28 ), #193, .F. ) ;
#72 = APPROVAL_PERSON_ORGANIZATION ( #187, #141, #65 ) ;
#73 = APPLICATION_PROTOCOL_DEFINITION ( 'international standard', 'config_control_design', 1994, #94 ) ;
#74 = EDGE_CURVE ( 'NONE', #102, #9, #184, .T. ) ;
#75 = CC_DESIGN_DATE_AND_TIME_ASSIGNMENT ( #148, #35, ( #185 ) ) ;
#76 = MANIFOLD_SOLID_BREP ( 'ÎÞ½ - µoµ1', #37 ) ;
#77 = LINE ( 'NONE', #3, #29 ) ;
#78 = LINE ( 'NONE', #174, #128 ) ;
#79 = CARTESIAN_POINT ( 'NONE',  ( -7.499999999999999100, 5.000000000000000000, 500.0000000000000000 ) ) ;
#80 = FACE_OUTER_BOUND ( 'NONE', #53, .T. ) ;
#81 = VECTOR ( 'NONE', #26, 1000.000000000000000 ) ;
#82 = ADVANCED_FACE ( 'NONE', ( #80 ), #222, .F. ) ;
#83 = COORDINATED_UNIVERSAL_TIME_OFFSET ( 9, 0, .AHEAD. ) ;
#84 = CARTESIAN_POINT ( 'NONE',  ( 7.500000000000001800, -5.000000000000000000, 500.0000000000000000 ) ) ;
#85 = CARTESIAN_POINT ( 'NONE',  ( 7.500000000000000900, 5.000000000000000000, 500.0000000000000000 ) ) ;
#86 = ORIENTED_EDGE ( 'NONE', *, *, #96, .F. ) ;
#87 = CARTESIAN_POINT ( 'NONE',  ( 7.500000000000000900, 5.000000000000000000, 500.0000000000000000 ) ) ;
#88 = CARTESIAN_POINT ( 'NONE',  ( -7.499999999999999100, 5.000000000000000000, -500.0000000000000000 ) ) ;
#89 = VECTOR ( 'NONE', #61, 1000.000000000000000 ) ;
#90 = LINE ( 'NONE', #179, #131 ) ;
#91 = EDGE_CURVE ( 'NONE', #173, #237, #90, .T. ) ;
#92 = COORDINATED_UNIVERSAL_TIME_OFFSET ( 9, 0, .AHEAD. ) ;
#93 = ORIENTED_EDGE ( 'NONE', *, *, #139, .T. ) ;
#94 = APPLICATION_CONTEXT ( 'configuration controlled 3d designs of mechanical parts and assemblies' ) ;
#95 = APPROVAL_PERSON_ORGANIZATION ( #162, #216, #152 ) ;
#96 = EDGE_CURVE ( 'NONE', #232, #9, #58, .T. ) ;
#97 = EDGE_CURVE ( 'NONE', #11, #229, #190, .T. ) ;
#98 = DIRECTION ( 'NONE',  ( -1.734723475976807100E-016, 1.000000000000000000, 0.0000000000000000000 ) ) ;
#99 = VECTOR ( 'NONE', #161, 1000.000000000000000 ) ;
#100 = EDGE_CURVE ( 'NONE', #229, #102, #69, .T. ) ;
#101 = ORIENTED_EDGE ( 'NONE', *, *, #74, .F. ) ;
#102 = VERTEX_POINT ( 'NONE', #224 ) ;
#103 = DIRECTION ( 'NONE',  ( 1.734723475976807100E-016, -1.000000000000000000, 0.0000000000000000000 ) ) ;
#104 = PRODUCT_RELATED_PRODUCT_CATEGORY ( 'detail', '', ( #147 ) ) ;
#105 = PLANE ( 'NONE',  #70 ) ;
#106 = APPROVAL_DATE_TIME ( #192, #216 ) ;
#107 = EDGE_CURVE ( 'NONE', #173, #11, #78, .T. ) ;
#108 = ORIENTED_EDGE ( 'NONE', *, *, #111, .F. ) ;
#109 = AXIS2_PLACEMENT_3D ( 'NONE', #146, #27, #164 ) ;
#110 = DIRECTION ( 'NONE',  ( 1.000000000000000000, 0.0000000000000000000, 0.0000000000000000000 ) ) ;
#111 = EDGE_CURVE ( 'NONE', #237, #229, #77, .T. ) ;
#112 = ORIENTED_EDGE ( 'NONE', *, *, #100, .T. ) ;
#113 = VECTOR ( 'NONE', #199, 1000.000000000000000 ) ;
#114 = ORIENTED_EDGE ( 'NONE', *, *, #129, .T. ) ;
#115 = ADVANCED_FACE ( 'NONE', ( #67 ), #225, .F. ) ;
#116 = LINE ( 'NONE', #85, #99 ) ;
#117 = PERSON_AND_ORGANIZATION ( #218, #39 ) ;
#118 = EDGE_CURVE ( 'NONE', #205, #232, #214, .T. ) ;
#119 = APPROVAL_DATE_TIME ( #57, #209 ) ;
#120 = DIRECTION ( 'NONE',  ( -1.000000000000000000, -8.673617379884035500E-017, 0.0000000000000000000 ) ) ;
#121 = APPLICATION_CONTEXT ( 'configuration controlled 3d designs of mechanical parts and assemblies' ) ;
#122 = CARTESIAN_POINT ( 'NONE',  ( -7.499999999999997300, -5.000000000000000000, 500.0000000000000000 ) ) ;
#123 = ORIENTED_EDGE ( 'NONE', *, *, #97, .T. ) ;
#124 = DIRECTION ( 'NONE',  ( 1.000000000000000000, 0.0000000000000000000, 0.0000000000000000000 ) ) ;
#125 = ORIENTED_EDGE ( 'NONE', *, *, #96, .T. ) ;
#126 = CARTESIAN_POINT ( 'NONE',  ( 0.0000000000000000000, 0.0000000000000000000, -500.0000000000000000 ) ) ;
#127 = PERSON_AND_ORGANIZATION ( #218, #39 ) ;
#128 = VECTOR ( 'NONE', #62, 1000.000000000000000 ) ;
#129 = EDGE_CURVE ( 'NONE', #9, #237, #228, .T. ) ;
#130 = PERSON_AND_ORGANIZATION_ROLE ( 'design_supplier' ) ;
#131 = VECTOR ( 'NONE', #208, 1000.000000000000000 ) ;
#132 = EDGE_CURVE ( 'NONE', #232, #173, #188, .T. ) ;
#133 = CALENDAR_DATE ( 2017, 2, 11 ) ;
#134 = EDGE_LOOP ( 'NONE', ( #114, #186, #68, #125 ) ) ;
#135 = CALENDAR_DATE ( 2017, 2, 11 ) ;
#136 = ORIENTED_EDGE ( 'NONE', *, *, #107, .T. ) ;
#137 = EDGE_CURVE ( 'NONE', #11, #205, #21, .T. ) ;
#138 = ORIENTED_EDGE ( 'NONE', *, *, #91, .T. ) ;
#139 = EDGE_CURVE ( 'NONE', #205, #102, #116, .T. ) ;
#140 = SHAPE_DEFINITION_REPRESENTATION ( #233, #155 ) ;
#141 = APPROVAL ( #181, 'UNSPECIFIED' ) ;
#142 = DIRECTION ( 'NONE',  ( -1.000000000000000000, -0.0000000000000000000, -0.0000000000000000000 ) ) ;
#143 = APPROVAL_STATUS ( 'not_yet_approved' ) ;
#144 = ORIENTED_EDGE ( 'NONE', *, *, #137, .T. ) ;
#145 = CARTESIAN_POINT ( 'NONE',  ( 0.0000000000000000000, 0.0000000000000000000, 0.0000000000000000000 ) ) ;
#146 = CARTESIAN_POINT ( 'NONE',  ( -7.499999999999999100, 5.000000000000000000, 500.0000000000000000 ) ) ;
#147 = PRODUCT ( 'sone3D', 'sone3D', '', ( #235 ) ) ;
#148 = DATE_AND_TIME ( #135, #30 ) ;
#149 = DATE_AND_TIME ( #133, #45 ) ;
#150 = CC_DESIGN_PERSON_AND_ORGANIZATION_ASSIGNMENT ( #127, #130, ( #207 ) ) ;
#151 = PERSON_AND_ORGANIZATION_ROLE ( 'classification_officer' ) ;
#152 = APPROVAL_ROLE ( '' ) ;
#153 = CALENDAR_DATE ( 2017, 2, 11 ) ;
#154 = DIRECTION ( 'NONE',  ( 1.000000000000000000, 0.0000000000000000000, 0.0000000000000000000 ) ) ;
#155 = ADVANCED_BREP_SHAPE_REPRESENTATION ( 'sone3D', ( #76, #17 ), #32 ) ;
#156 = CC_DESIGN_SECURITY_CLASSIFICATION ( #185, ( #207 ) ) ;
#157 = PERSON_AND_ORGANIZATION ( #218, #39 ) ;
#158 = DIRECTION ( 'NONE',  ( 0.0000000000000000000, 1.000000000000000000, 0.0000000000000000000 ) ) ;
#159 = PERSON_AND_ORGANIZATION_ROLE ( 'creator' ) ;
#160 = CARTESIAN_POINT ( 'NONE',  ( 0.0000000000000000000, 0.0000000000000000000, 500.0000000000000000 ) ) ;
#161 = DIRECTION ( 'NONE',  ( -0.0000000000000000000, -0.0000000000000000000, -1.000000000000000000 ) ) ;
#162 = PERSON_AND_ORGANIZATION ( #218, #39 ) ;
#163 = FACE_OUTER_BOUND ( 'NONE', #1, .T. ) ;
#164 = DIRECTION ( 'NONE',  ( 0.0000000000000000000, -0.0000000000000000000, -1.000000000000000000 ) ) ;
#165 = CC_DESIGN_PERSON_AND_ORGANIZATION_ASSIGNMENT ( #196, #151, ( #185 ) ) ;
#166 =( NAMED_UNIT ( * ) PLANE_ANGLE_UNIT ( ) SI_UNIT ( $, .RADIAN. ) );
#167 = APPROVAL_PERSON_ORGANIZATION ( #157, #209, #25 ) ;
#168 = ORIENTED_EDGE ( 'NONE', *, *, #74, .T. ) ;
#169 = ORIENTED_EDGE ( 'NONE', *, *, #100, .F. ) ;
#170 = ORIENTED_EDGE ( 'NONE', *, *, #97, .F. ) ;
#171 = LOCAL_TIME ( 13, 20, 31.00000000000000000, #44 ) ;
#172 = COORDINATED_UNIVERSAL_TIME_OFFSET ( 9, 0, .AHEAD. ) ;
#173 = VERTEX_POINT ( 'NONE', #122 ) ;
#174 = CARTESIAN_POINT ( 'NONE',  ( -7.499999999999997300, -5.000000000000000000, 500.0000000000000000 ) ) ;
#175 = ORIENTED_EDGE ( 'NONE', *, *, #118, .T. ) ;
#176 = ORIENTED_EDGE ( 'NONE', *, *, #118, .F. ) ;
#177 = CARTESIAN_POINT ( 'NONE',  ( 7.500000000000000900, 5.000000000000000000, 500.0000000000000000 ) ) ;
#178 = EDGE_LOOP ( 'NONE', ( #112, #34, #231, #123 ) ) ;
#179 = CARTESIAN_POINT ( 'NONE',  ( -7.499999999999997300, -5.000000000000000000, 500.0000000000000000 ) ) ;
#180 = CARTESIAN_POINT ( 'NONE',  ( 7.500000000000000900, 5.000000000000000000, 500.0000000000000000 ) ) ;
#181 = APPROVAL_STATUS ( 'not_yet_approved' ) ;
#182 = EDGE_LOOP ( 'NONE', ( #168, #86, #176, #93 ) ) ;
#183 = CARTESIAN_POINT ( 'NONE',  ( 7.500000000000001800, -5.000000000000000000, -500.0000000000000000 ) ) ;
#184 = LINE ( 'NONE', #5, #203 ) ;
#185 = SECURITY_CLASSIFICATION ( '', '', #12 ) ;
#186 = ORIENTED_EDGE ( 'NONE', *, *, #91, .F. ) ;
#187 = PERSON_AND_ORGANIZATION ( #218, #39 ) ;
#188 = LINE ( 'NONE', #227, #220 ) ;
#189 = CC_DESIGN_PERSON_AND_ORGANIZATION_ASSIGNMENT ( #236, #200, ( #207 ) ) ;
#190 = LINE ( 'NONE', #84, #33 ) ;
#191 = FACE_OUTER_BOUND ( 'NONE', #182, .T. ) ;
#192 = DATE_AND_TIME ( #41, #171 ) ;
#193 = PLANE ( 'NONE',  #50 ) ;
#194 = ORIENTED_EDGE ( 'NONE', *, *, #111, .T. ) ;
#195 = DIRECTION ( 'NONE',  ( -8.673617379884035500E-017, 1.000000000000000000, -0.0000000000000000000 ) ) ;
#196 = PERSON_AND_ORGANIZATION ( #218, #39 ) ;
#197 = CC_DESIGN_APPROVAL ( #141, ( #207 ) ) ;
#198 = DIRECTION ( 'NONE',  ( 1.000000000000000000, 0.0000000000000000000, 0.0000000000000000000 ) ) ;
#199 = DIRECTION ( 'NONE',  ( -1.000000000000000000, -0.0000000000000000000, -0.0000000000000000000 ) ) ;
#200 = PERSON_AND_ORGANIZATION_ROLE ( 'creator' ) ;
#201 = CARTESIAN_POINT ( 'NONE',  ( -7.499999999999999100, 5.000000000000000000, 500.0000000000000000 ) ) ;
#202 = ORIENTED_EDGE ( 'NONE', *, *, #129, .F. ) ;
#203 = VECTOR ( 'NONE', #142, 1000.000000000000000 ) ;
#204 = DIRECTION ( 'NONE',  ( 1.000000000000000000, 1.734723475976807100E-016, -0.0000000000000000000 ) ) ;
#205 = VERTEX_POINT ( 'NONE', #87 ) ;
#206 = CALENDAR_DATE ( 2017, 2, 11 ) ;
#207 = PRODUCT_DEFINITION_FORMATION_WITH_SPECIFIED_SOURCE ( 'ANY', '', #147, .NOT_KNOWN. ) ;
#208 = DIRECTION ( 'NONE',  ( -0.0000000000000000000, -0.0000000000000000000, -1.000000000000000000 ) ) ;
#209 = APPROVAL ( #143, 'UNSPECIFIED' ) ;
#210 = DIRECTION ( 'NONE',  ( -0.0000000000000000000, 0.0000000000000000000, 1.000000000000000000 ) ) ;
#211 = LOCAL_TIME ( 13, 20, 31.00000000000000000, #83 ) ;
#212 =( LENGTH_UNIT ( ) NAMED_UNIT ( * ) SI_UNIT ( .MILLI., .METRE. ) );
#213 = CARTESIAN_POINT ( 'NONE',  ( 7.500000000000001800, -5.000000000000000000, 500.0000000000000000 ) ) ;
#214 = LINE ( 'NONE', #64, #113 ) ;
#215 = ORIENTED_EDGE ( 'NONE', *, *, #107, .F. ) ;
#216 = APPROVAL ( #15, 'UNSPECIFIED' ) ;
#217 = EDGE_LOOP ( 'NONE', ( #202, #101, #169, #108 ) ) ;
#218 = PERSON ( 'UNSPECIFIED', 'UNSPECIFIED', 'UNSPECIFIED', ('UNSPECIFIED'), ('UNSPECIFIED'), ('UNSPECIFIED') ) ;
#219 = DIRECTION ( 'NONE',  ( 0.0000000000000000000, 0.0000000000000000000, 1.000000000000000000 ) ) ;
#220 = VECTOR ( 'NONE', #7, 1000.000000000000000 ) ;
#221 = FACE_OUTER_BOUND ( 'NONE', #217, .T. ) ;
#222 = PLANE ( 'NONE',  #36 ) ;
#223 = VECTOR ( 'NONE', #103, 1000.000000000000000 ) ;
#224 = CARTESIAN_POINT ( 'NONE',  ( 7.500000000000000900, 5.000000000000000000, -500.0000000000000000 ) ) ;
#225 = PLANE ( 'NONE',  #31 ) ;
#226 = PERSON_AND_ORGANIZATION_ROLE ( 'design_owner' ) ;
#227 = CARTESIAN_POINT ( 'NONE',  ( -7.499999999999999100, 5.000000000000000000, 500.0000000000000000 ) ) ;
#228 = LINE ( 'NONE', #47, #223 ) ;
#229 = VERTEX_POINT ( 'NONE', #183 ) ;
#230 = PLANE ( 'NONE',  #51 ) ;
#231 = ORIENTED_EDGE ( 'NONE', *, *, #137, .F. ) ;
#232 = VERTEX_POINT ( 'NONE', #201 ) ;
#233 = PRODUCT_DEFINITION_SHAPE ( 'NONE', 'NONE',  #8 ) ;
#234 = CC_DESIGN_APPROVAL ( #216, ( #185 ) ) ;
#235 = MECHANICAL_CONTEXT ( 'NONE', #94, 'mechanical' ) ;
#236 = PERSON_AND_ORGANIZATION ( #218, #39 ) ;
#237 = VERTEX_POINT ( 'NONE', #66 ) ;
ENDSEC;
END-ISO-10303-21;
