ISO-10303-21;
HEADER;
FILE_DESCRIPTION (( 'STEP AP203' ),
    '1' );
FILE_NAME ('sone3D.STEP',
    '2017-11-02T04:20:00',
    ( '' ),
    ( '' ),
    'SwSTEP 2.0',
    'SolidWorks 2014',
    '' );
FILE_SCHEMA (( 'CONFIG_CONTROL_DESIGN' ));
ENDSEC;

DATA;
#1 = VECTOR ( 'NONE', #49, 1000.000000000000000 ) ;
#2 = CLOSED_SHELL ( 'NONE', ( #137, #34, #120, #204, #31, #50 ) ) ;
#3 = DATE_AND_TIME ( #184, #167 ) ;
#4 = LINE ( 'NONE', #80, #63 ) ;
#5 = CC_DESIGN_PERSON_AND_ORGANIZATION_ASSIGNMENT ( #119, #159, ( #212 ) ) ;
#6 = DIRECTION ( 'NONE',  ( 1.000000000000000000, 0.0000000000000000000, 0.0000000000000000000 ) ) ;
#7 = VECTOR ( 'NONE', #6, 1000.000000000000000 ) ;
#8 = ORIENTED_EDGE ( 'NONE', *, *, #100, .T. ) ;
#9 = CARTESIAN_POINT ( 'NONE',  ( -5.000000000000001800, 5.000000000000000000, 500.0000000000000000 ) ) ;
#10 = CARTESIAN_POINT ( 'NONE',  ( -5.000000000000001800, 5.000000000000000000, 500.0000000000000000 ) ) ;
#11 =( LENGTH_UNIT ( ) NAMED_UNIT ( * ) SI_UNIT ( .MILLI., .METRE. ) );
#12 = LINE ( 'NONE', #170, #83 ) ;
#13 = APPLICATION_CONTEXT ( 'configuration controlled 3d designs of mechanical parts and assemblies' ) ;
#14 = DATE_AND_TIME ( #199, #36 ) ;
#15 = PERSON_AND_ORGANIZATION_ROLE ( 'design_supplier' ) ;
#16 = EDGE_LOOP ( 'NONE', ( #152, #172, #183, #84 ) ) ;
#17 = APPROVAL_DATE_TIME ( #203, #44 ) ;
#18 = EDGE_LOOP ( 'NONE', ( #181, #188, #23, #198 ) ) ;
#19 = ORIENTED_EDGE ( 'NONE', *, *, #140, .F. ) ;
#20 = AXIS2_PLACEMENT_3D ( 'NONE', #130, #29, #157 ) ;
#21 = ORIENTED_EDGE ( 'NONE', *, *, #88, .T. ) ;
#22 = CARTESIAN_POINT ( 'NONE',  ( -5.000000000000000000, -5.000000000000000000, 500.0000000000000000 ) ) ;
#23 = ORIENTED_EDGE ( 'NONE', *, *, #136, .F. ) ;
#24 = CC_DESIGN_APPROVAL ( #44, ( #221 ) ) ;
#25 = CARTESIAN_POINT ( 'NONE',  ( -5.000000000000001800, 5.000000000000000000, 500.0000000000000000 ) ) ;
#26 = CC_DESIGN_DATE_AND_TIME_ASSIGNMENT ( #217, #211, ( #197 ) ) ;
#27 = DIRECTION ( 'NONE',  ( -1.734723475976807100E-016, 1.000000000000000000, 0.0000000000000000000 ) ) ;
#28 = ORIENTED_EDGE ( 'NONE', *, *, #90, .F. ) ;
#29 = DIRECTION ( 'NONE',  ( 0.0000000000000000000, -1.000000000000000000, 0.0000000000000000000 ) ) ;
#30 = ORIENTED_EDGE ( 'NONE', *, *, #145, .F. ) ;
#31 = ADVANCED_FACE ( 'NONE', ( #216 ), #141, .T. ) ;
#32 = VECTOR ( 'NONE', #190, 1000.000000000000000 ) ;
#33 = MECHANICAL_CONTEXT ( 'NONE', #13, 'mechanical' ) ;
#34 = ADVANCED_FACE ( 'NONE', ( #202 ), #109, .F. ) ;
#35 = PERSON_AND_ORGANIZATION_ROLE ( 'classification_officer' ) ;
#36 = LOCAL_TIME ( 13, 20, 0.0000000000000000000, #150 ) ;
#37 =( GEOMETRIC_REPRESENTATION_CONTEXT ( 3 ) GLOBAL_UNCERTAINTY_ASSIGNED_CONTEXT ( ( #235 ) ) GLOBAL_UNIT_ASSIGNED_CONTEXT ( ( #11, #98, #210 ) ) REPRESENTATION_CONTEXT ( 'NONE', 'WORKASPACE' ) );
#38 = VERTEX_POINT ( 'NONE', #22 ) ;
#39 = AXIS2_PLACEMENT_3D ( 'NONE', #10, #143, #27 ) ;
#40 = AXIS2_PLACEMENT_3D ( 'NONE', #173, #56, #144 ) ;
#41 = EDGE_LOOP ( 'NONE', ( #234, #165, #104, #21 ) ) ;
#42 = LOCAL_TIME ( 13, 20, 0.0000000000000000000, #185 ) ;
#43 = VERTEX_POINT ( 'NONE', #70 ) ;
#44 = APPROVAL ( #60, 'UNSPECIFIED' ) ;
#45 = VECTOR ( 'NONE', #208, 1000.000000000000000 ) ;
#46 = ORIENTED_EDGE ( 'NONE', *, *, #134, .T. ) ;
#47 = CARTESIAN_POINT ( 'NONE',  ( 0.0000000000000000000, 0.0000000000000000000, 500.0000000000000000 ) ) ;
#48 = DIRECTION ( 'NONE',  ( 0.0000000000000000000, -0.0000000000000000000, 1.000000000000000000 ) ) ;
#49 = DIRECTION ( 'NONE',  ( -0.0000000000000000000, -0.0000000000000000000, -1.000000000000000000 ) ) ;
#50 = ADVANCED_FACE ( 'NONE', ( #209 ), #92, .F. ) ;
#51 = CARTESIAN_POINT ( 'NONE',  ( 5.000000000000000000, 5.000000000000000000, -500.0000000000000000 ) ) ;
#52 = DIRECTION ( 'NONE',  ( -0.0000000000000000000, -0.0000000000000000000, -1.000000000000000000 ) ) ;
#53 = DIRECTION ( 'NONE',  ( 1.734723475976807100E-016, -1.000000000000000000, 0.0000000000000000000 ) ) ;
#54 = PLANE ( 'NONE',  #20 ) ;
#55 = AXIS2_PLACEMENT_3D ( 'NONE', #94, #111, #225 ) ;
#56 = DIRECTION ( 'NONE',  ( 0.0000000000000000000, 0.0000000000000000000, 1.000000000000000000 ) ) ;
#57 = APPLICATION_CONTEXT ( 'configuration controlled 3d designs of mechanical parts and assemblies' ) ;
#58 = LINE ( 'NONE', #51, #164 ) ;
#59 = LOCAL_TIME ( 13, 20, 0.0000000000000000000, #78 ) ;
#60 = APPROVAL_STATUS ( 'not_yet_approved' ) ;
#61 = CC_DESIGN_PERSON_AND_ORGANIZATION_ASSIGNMENT ( #69, #15, ( #231 ) ) ;
#62 = AXIS2_PLACEMENT_3D ( 'NONE', #223, #110, #224 ) ;
#63 = VECTOR ( 'NONE', #155, 1000.000000000000000 ) ;
#64 = EDGE_LOOP ( 'NONE', ( #146, #106, #176, #8 ) ) ;
#65 = VECTOR ( 'NONE', #226, 1000.000000000000000 ) ;
#66 = PERSON_AND_ORGANIZATION ( #219, #123 ) ;
#67 = FACE_OUTER_BOUND ( 'NONE', #158, .T. ) ;
#68 = LINE ( 'NONE', #125, #91 ) ;
#69 = PERSON_AND_ORGANIZATION ( #219, #123 ) ;
#70 = CARTESIAN_POINT ( 'NONE',  ( -5.000000000000000000, -5.000000000000000000, -500.0000000000000000 ) ) ;
#71 = CARTESIAN_POINT ( 'NONE',  ( 5.000000000000000000, 5.000000000000000000, 500.0000000000000000 ) ) ;
#72 = DIRECTION ( 'NONE',  ( -1.000000000000000000, -0.0000000000000000000, -0.0000000000000000000 ) ) ;
#73 = CARTESIAN_POINT ( 'NONE',  ( 5.000000000000000000, 5.000000000000000000, -500.0000000000000000 ) ) ;
#74 = CARTESIAN_POINT ( 'NONE',  ( -5.000000000000001800, 5.000000000000000000, -500.0000000000000000 ) ) ;
#75 = CARTESIAN_POINT ( 'NONE',  ( -5.000000000000001800, 5.000000000000000000, -500.0000000000000000 ) ) ;
#76 = VECTOR ( 'NONE', #53, 1000.000000000000000 ) ;
#77 = LINE ( 'NONE', #25, #149 ) ;
#78 = COORDINATED_UNIVERSAL_TIME_OFFSET ( 9, 0, .AHEAD. ) ;
#79 = APPROVAL_STATUS ( 'not_yet_approved' ) ;
#80 = CARTESIAN_POINT ( 'NONE',  ( -5.000000000000000000, -5.000000000000000000, -500.0000000000000000 ) ) ;
#81 = MANIFOLD_SOLID_BREP ( 'ÎÞ½ - µoµ1', #2 ) ;
#82 = EDGE_CURVE ( 'NONE', #103, #180, #68, .T. ) ;
#83 = VECTOR ( 'NONE', #52, 1000.000000000000000 ) ;
#84 = ORIENTED_EDGE ( 'NONE', *, *, #89, .T. ) ;
#85 = EDGE_CURVE ( 'NONE', #38, #103, #97, .T. ) ;
#86 = FACE_OUTER_BOUND ( 'NONE', #16, .T. ) ;
#87 = APPROVAL_PERSON_ORGANIZATION ( #66, #118, #192 ) ;
#88 = EDGE_CURVE ( 'NONE', #196, #160, #77, .T. ) ;
#89 = EDGE_CURVE ( 'NONE', #196, #129, #194, .T. ) ;
#90 = EDGE_CURVE ( 'NONE', #180, #129, #58, .T. ) ;
#91 = VECTOR ( 'NONE', #206, 1000.000000000000000 ) ;
#92 = PLANE ( 'NONE',  #62 ) ;
#93 = AXIS2_PLACEMENT_3D ( 'NONE', #186, #154, #48 ) ;
#94 = CARTESIAN_POINT ( 'NONE',  ( 5.000000000000000000, 5.000000000000000000, 500.0000000000000000 ) ) ;
#95 = EDGE_CURVE ( 'NONE', #43, #180, #4, .T. ) ;
#96 = CARTESIAN_POINT ( 'NONE',  ( 5.000000000000000000, -5.000000000000000000, -500.0000000000000000 ) ) ;
#97 = LINE ( 'NONE', #168, #7 ) ;
#98 =( NAMED_UNIT ( * ) PLANE_ANGLE_UNIT ( ) SI_UNIT ( $, .RADIAN. ) );
#99 = PERSON_AND_ORGANIZATION_ROLE ( 'creator' ) ;
#100 = EDGE_CURVE ( 'NONE', #38, #43, #12, .T. ) ;
#101 = LOCAL_TIME ( 13, 20, 0.0000000000000000000, #177 ) ;
#102 = CC_DESIGN_PERSON_AND_ORGANIZATION_ASSIGNMENT ( #108, #35, ( #221 ) ) ;
#103 = VERTEX_POINT ( 'NONE', #213 ) ;
#104 = ORIENTED_EDGE ( 'NONE', *, *, #136, .T. ) ;
#105 = CALENDAR_DATE ( 2017, 2, 11 ) ;
#106 = ORIENTED_EDGE ( 'NONE', *, *, #82, .F. ) ;
#107 = LINE ( 'NONE', #112, #45 ) ;
#108 = PERSON_AND_ORGANIZATION ( #219, #123 ) ;
#109 = PLANE ( 'NONE',  #93 ) ;
#110 = DIRECTION ( 'NONE',  ( -0.0000000000000000000, 0.0000000000000000000, 1.000000000000000000 ) ) ;
#111 = DIRECTION ( 'NONE',  ( -1.000000000000000000, 0.0000000000000000000, 0.0000000000000000000 ) ) ;
#112 = CARTESIAN_POINT ( 'NONE',  ( -5.000000000000001800, 5.000000000000000000, -500.0000000000000000 ) ) ;
#113 = ORIENTED_EDGE ( 'NONE', *, *, #100, .F. ) ;
#114 = PERSON_AND_ORGANIZATION ( #219, #123 ) ;
#115 = APPROVAL_STATUS ( 'not_yet_approved' ) ;
#116 = ADVANCED_BREP_SHAPE_REPRESENTATION ( 'sone3D', ( #81, #40 ), #37 ) ;
#117 = VECTOR ( 'NONE', #189, 1000.000000000000000 ) ;
#118 = APPROVAL ( #79, 'UNSPECIFIED' ) ;
#119 = PERSON_AND_ORGANIZATION ( #219, #123 ) ;
#120 = ADVANCED_FACE ( 'NONE', ( #191 ), #187, .F. ) ;
#121 = ORIENTED_EDGE ( 'NONE', *, *, #133, .F. ) ;
#122 = CALENDAR_DATE ( 2017, 2, 11 ) ;
#123 = ORGANIZATION ( 'UNSPECIFIED', 'UNSPECIFIED', '' ) ;
#124 = DIRECTION ( 'NONE',  ( -0.0000000000000000000, 0.0000000000000000000, 1.000000000000000000 ) ) ;
#125 = CARTESIAN_POINT ( 'NONE',  ( 5.000000000000000000, -5.000000000000000000, 500.0000000000000000 ) ) ;
#126 = CARTESIAN_POINT ( 'NONE',  ( -5.000000000000001800, 5.000000000000000000, 500.0000000000000000 ) ) ;
#127 = PRODUCT_RELATED_PRODUCT_CATEGORY ( 'detail', '', ( #212 ) ) ;
#128 = CC_DESIGN_APPROVAL ( #118, ( #197 ) ) ;
#129 = VERTEX_POINT ( 'NONE', #73 ) ;
#130 = CARTESIAN_POINT ( 'NONE',  ( -5.000000000000001800, 5.000000000000000000, 500.0000000000000000 ) ) ;
#131 = PERSON_AND_ORGANIZATION_ROLE ( 'creator' ) ;
#132 = APPROVAL_DATE_TIME ( #182, #218 ) ;
#133 = EDGE_CURVE ( 'NONE', #160, #38, #200, .T. ) ;
#134 = EDGE_CURVE ( 'NONE', #160, #135, #227, .T. ) ;
#135 = VERTEX_POINT ( 'NONE', #74 ) ;
#136 = EDGE_CURVE ( 'NONE', #103, #196, #237, .T. ) ;
#137 = ADVANCED_FACE ( 'NONE', ( #67 ), #207, .F. ) ;
#138 = LINE ( 'NONE', #75, #32 ) ;
#139 = CALENDAR_DATE ( 2017, 2, 11 ) ;
#140 = EDGE_CURVE ( 'NONE', #135, #43, #138, .T. ) ;
#141 = PLANE ( 'NONE',  #163 ) ;
#142 = CC_DESIGN_PERSON_AND_ORGANIZATION_ASSIGNMENT ( #166, #131, ( #231 ) ) ;
#143 = DIRECTION ( 'NONE',  ( 1.000000000000000000, 1.734723475976807100E-016, -0.0000000000000000000 ) ) ;
#144 = DIRECTION ( 'NONE',  ( 1.000000000000000000, 0.0000000000000000000, 0.0000000000000000000 ) ) ;
#145 = EDGE_CURVE ( 'NONE', #129, #135, #107, .T. ) ;
#146 = ORIENTED_EDGE ( 'NONE', *, *, #95, .T. ) ;
#147 = SECURITY_CLASSIFICATION_LEVEL ( 'unclassified' ) ;
#148 = PERSON_AND_ORGANIZATION ( #219, #123 ) ;
#149 = VECTOR ( 'NONE', #72, 1000.000000000000000 ) ;
#150 = COORDINATED_UNIVERSAL_TIME_OFFSET ( 9, 0, .AHEAD. ) ;
#151 = CC_DESIGN_PERSON_AND_ORGANIZATION_ASSIGNMENT ( #193, #99, ( #197 ) ) ;
#152 = ORIENTED_EDGE ( 'NONE', *, *, #145, .T. ) ;
#153 = APPROVAL_PERSON_ORGANIZATION ( #114, #44, #175 ) ;
#154 = DIRECTION ( 'NONE',  ( 0.0000000000000000000, 1.000000000000000000, 0.0000000000000000000 ) ) ;
#155 = DIRECTION ( 'NONE',  ( 1.000000000000000000, 0.0000000000000000000, 0.0000000000000000000 ) ) ;
#156 = CARTESIAN_POINT ( 'NONE',  ( 5.000000000000000000, 5.000000000000000000, 500.0000000000000000 ) ) ;
#157 = DIRECTION ( 'NONE',  ( 0.0000000000000000000, -0.0000000000000000000, -1.000000000000000000 ) ) ;
#158 = EDGE_LOOP ( 'NONE', ( #201, #113, #121, #46 ) ) ;
#159 = PERSON_AND_ORGANIZATION_ROLE ( 'design_owner' ) ;
#160 = VERTEX_POINT ( 'NONE', #228 ) ;
#161 = DATE_TIME_ROLE ( 'classification_date' ) ;
#162 = SHAPE_DEFINITION_REPRESENTATION ( #195, #116 ) ;
#163 = AXIS2_PLACEMENT_3D ( 'NONE', #47, #124, #205 ) ;
#164 = VECTOR ( 'NONE', #169, 1000.000000000000000 ) ;
#165 = ORIENTED_EDGE ( 'NONE', *, *, #85, .T. ) ;
#166 = PERSON_AND_ORGANIZATION ( #219, #123 ) ;
#167 = LOCAL_TIME ( 13, 20, 0.0000000000000000000, #178 ) ;
#168 = CARTESIAN_POINT ( 'NONE',  ( -5.000000000000000000, -5.000000000000000000, 500.0000000000000000 ) ) ;
#169 = DIRECTION ( 'NONE',  ( -0.0000000000000000000, 1.000000000000000000, -0.0000000000000000000 ) ) ;
#170 = CARTESIAN_POINT ( 'NONE',  ( -5.000000000000000000, -5.000000000000000000, 500.0000000000000000 ) ) ;
#171 = CARTESIAN_POINT ( 'NONE',  ( 5.000000000000000000, 5.000000000000000000, 500.0000000000000000 ) ) ;
#172 = ORIENTED_EDGE ( 'NONE', *, *, #134, .F. ) ;
#173 = CARTESIAN_POINT ( 'NONE',  ( 0.0000000000000000000, 0.0000000000000000000, 0.0000000000000000000 ) ) ;
#174 = APPLICATION_PROTOCOL_DEFINITION ( 'international standard', 'config_control_design', 1994, #57 ) ;
#175 = APPROVAL_ROLE ( '' ) ;
#176 = ORIENTED_EDGE ( 'NONE', *, *, #85, .F. ) ;
#177 = COORDINATED_UNIVERSAL_TIME_OFFSET ( 9, 0, .AHEAD. ) ;
#178 = COORDINATED_UNIVERSAL_TIME_OFFSET ( 9, 0, .AHEAD. ) ;
#179 = CC_DESIGN_SECURITY_CLASSIFICATION ( #221, ( #231 ) ) ;
#180 = VERTEX_POINT ( 'NONE', #96 ) ;
#181 = ORIENTED_EDGE ( 'NONE', *, *, #90, .T. ) ;
#182 = DATE_AND_TIME ( #139, #101 ) ;
#183 = ORIENTED_EDGE ( 'NONE', *, *, #88, .F. ) ;
#184 = CALENDAR_DATE ( 2017, 2, 11 ) ;
#185 = COORDINATED_UNIVERSAL_TIME_OFFSET ( 9, 0, .AHEAD. ) ;
#186 = CARTESIAN_POINT ( 'NONE',  ( -5.000000000000000000, -5.000000000000000000, 500.0000000000000000 ) ) ;
#187 = PLANE ( 'NONE',  #55 ) ;
#188 = ORIENTED_EDGE ( 'NONE', *, *, #89, .F. ) ;
#189 = DIRECTION ( 'NONE',  ( -0.0000000000000000000, -0.0000000000000000000, -1.000000000000000000 ) ) ;
#190 = DIRECTION ( 'NONE',  ( 1.734723475976807100E-016, -1.000000000000000000, 0.0000000000000000000 ) ) ;
#191 = FACE_OUTER_BOUND ( 'NONE', #18, .T. ) ;
#192 = APPROVAL_ROLE ( '' ) ;
#193 = PERSON_AND_ORGANIZATION ( #219, #123 ) ;
#194 = LINE ( 'NONE', #71, #1 ) ;
#195 = PRODUCT_DEFINITION_SHAPE ( 'NONE', 'NONE',  #197 ) ;
#196 = VERTEX_POINT ( 'NONE', #156 ) ;
#197 = PRODUCT_DEFINITION ( 'UNKNOWN', '', #231, #214 ) ;
#198 = ORIENTED_EDGE ( 'NONE', *, *, #82, .T. ) ;
#199 = CALENDAR_DATE ( 2017, 2, 11 ) ;
#200 = LINE ( 'NONE', #126, #76 ) ;
#201 = ORIENTED_EDGE ( 'NONE', *, *, #140, .T. ) ;
#202 = FACE_OUTER_BOUND ( 'NONE', #64, .T. ) ;
#203 = DATE_AND_TIME ( #122, #59 ) ;
#204 = ADVANCED_FACE ( 'NONE', ( #86 ), #54, .F. ) ;
#205 = DIRECTION ( 'NONE',  ( 1.000000000000000000, 0.0000000000000000000, 0.0000000000000000000 ) ) ;
#206 = DIRECTION ( 'NONE',  ( -0.0000000000000000000, -0.0000000000000000000, -1.000000000000000000 ) ) ;
#207 = PLANE ( 'NONE',  #39 ) ;
#208 = DIRECTION ( 'NONE',  ( -1.000000000000000000, -0.0000000000000000000, -0.0000000000000000000 ) ) ;
#209 = FACE_OUTER_BOUND ( 'NONE', #220, .T. ) ;
#210 =( NAMED_UNIT ( * ) SI_UNIT ( $, .STERADIAN. ) SOLID_ANGLE_UNIT ( ) );
#211 = DATE_TIME_ROLE ( 'creation_date' ) ;
#212 = PRODUCT ( 'sone3D', 'sone3D', '', ( #33 ) ) ;
#213 = CARTESIAN_POINT ( 'NONE',  ( 5.000000000000000000, -5.000000000000000000, 500.0000000000000000 ) ) ;
#214 = DESIGN_CONTEXT ( 'detailed design', #57, 'design' ) ;
#215 = ORIENTED_EDGE ( 'NONE', *, *, #95, .F. ) ;
#216 = FACE_OUTER_BOUND ( 'NONE', #41, .T. ) ;
#217 = DATE_AND_TIME ( #105, #42 ) ;
#218 = APPROVAL ( #115, 'UNSPECIFIED' ) ;
#219 = PERSON ( 'UNSPECIFIED', 'UNSPECIFIED', 'UNSPECIFIED', ('UNSPECIFIED'), ('UNSPECIFIED'), ('UNSPECIFIED') ) ;
#220 = EDGE_LOOP ( 'NONE', ( #19, #30, #28, #215 ) ) ;
#221 = SECURITY_CLASSIFICATION ( '', '', #147 ) ;
#222 = APPROVAL_DATE_TIME ( #3, #118 ) ;
#223 = CARTESIAN_POINT ( 'NONE',  ( 0.0000000000000000000, 0.0000000000000000000, -500.0000000000000000 ) ) ;
#224 = DIRECTION ( 'NONE',  ( 1.000000000000000000, 0.0000000000000000000, 0.0000000000000000000 ) ) ;
#225 = DIRECTION ( 'NONE',  ( 0.0000000000000000000, 0.0000000000000000000, 1.000000000000000000 ) ) ;
#226 = DIRECTION ( 'NONE',  ( -0.0000000000000000000, 1.000000000000000000, -0.0000000000000000000 ) ) ;
#227 = LINE ( 'NONE', #9, #117 ) ;
#228 = CARTESIAN_POINT ( 'NONE',  ( -5.000000000000001800, 5.000000000000000000, 500.0000000000000000 ) ) ;
#229 = APPLICATION_PROTOCOL_DEFINITION ( 'international standard', 'config_control_design', 1994, #13 ) ;
#230 = APPROVAL_ROLE ( '' ) ;
#231 = PRODUCT_DEFINITION_FORMATION_WITH_SPECIFIED_SOURCE ( 'ANY', '', #212, .NOT_KNOWN. ) ;
#232 = CC_DESIGN_DATE_AND_TIME_ASSIGNMENT ( #14, #161, ( #221 ) ) ;
#233 = CC_DESIGN_APPROVAL ( #218, ( #231 ) ) ;
#234 = ORIENTED_EDGE ( 'NONE', *, *, #133, .T. ) ;
#235 = UNCERTAINTY_MEASURE_WITH_UNIT (LENGTH_MEASURE( 1.000000000000000100E-005 ), #11, 'distance_accuracy_value', 'NONE');
#236 = APPROVAL_PERSON_ORGANIZATION ( #148, #218, #230 ) ;
#237 = LINE ( 'NONE', #171, #65 ) ;
ENDSEC;
END-ISO-10303-21;
