ISO-10303-21;
HEADER;
FILE_DESCRIPTION (( 'STEP AP203' ),
    '1' );
FILE_NAME ('sone3D.STEP',
    '2013-05-13T01:54:54',
    ( '' ),
    ( '' ),
    'SwSTEP 2.0',
    'SolidWorks 2012',
    '' );
FILE_SCHEMA (( 'CONFIG_CONTROL_DESIGN' ));
ENDSEC;

DATA;
#1 = DIRECTION ( 'NONE',  ( 1.000000000000000000, 0.0000000000000000000, 0.0000000000000000000 ) ) ;
#2 = SHAPE_DEFINITION_REPRESENTATION ( #192, #149 ) ;
#3 = APPLICATION_PROTOCOL_DEFINITION ( 'international standard', 'config_control_design', 1994, #44 ) ;
#4 = MECHANICAL_CONTEXT ( 'NONE', #44, 'mechanical' ) ;
#5 = PERSON_AND_ORGANIZATION ( #151, #132 ) ;
#6 = PERSON_AND_ORGANIZATION_ROLE ( 'design_owner' ) ;
#7 = APPLICATION_PROTOCOL_DEFINITION ( 'international standard', 'config_control_design', 1994, #43 ) ;
#8 = PERSON_AND_ORGANIZATION ( #151, #132 ) ;
#9 = APPROVAL_STATUS ( 'not_yet_approved' ) ;
#10 = APPROVAL_ROLE ( '' ) ;
#11 = DATE_AND_TIME ( #174, #52 ) ;
#12 = APPROVAL_DATE_TIME ( #11, #51 ) ;
#13 = PERSON_AND_ORGANIZATION ( #151, #132 ) ;
#14 = PERSON_AND_ORGANIZATION_ROLE ( 'creator' ) ;
#15 = DATE_AND_TIME ( #177, #55 ) ;
#16 = DATE_TIME_ROLE ( 'creation_date' ) ;
#17 = PERSON_AND_ORGANIZATION ( #151, #132 ) ;
#18 = APPROVAL_STATUS ( 'not_yet_approved' ) ;
#19 = APPROVAL_ROLE ( '' ) ;
#20 = DATE_AND_TIME ( #186, #58 ) ;
#21 = APPROVAL_DATE_TIME ( #20, #57 ) ;
#22 = PERSON_AND_ORGANIZATION ( #151, #132 ) ;
#23 = PERSON_AND_ORGANIZATION_ROLE ( 'creator' ) ;
#24 = PERSON_AND_ORGANIZATION ( #151, #132 ) ;
#25 = PERSON_AND_ORGANIZATION_ROLE ( 'design_supplier' ) ;
#26 = SECURITY_CLASSIFICATION_LEVEL ( 'unclassified' ) ;
#27 = PERSON_AND_ORGANIZATION ( #151, #132 ) ;
#28 = PERSON_AND_ORGANIZATION_ROLE ( 'classification_officer' ) ;
#29 = DATE_AND_TIME ( #190, #37 ) ;
#30 = DATE_TIME_ROLE ( 'classification_date' ) ;
#31 = PERSON_AND_ORGANIZATION ( #151, #132 ) ;
#32 = APPROVAL_STATUS ( 'not_yet_approved' ) ;
#33 = APPROVAL_ROLE ( '' ) ;
#34 = DATE_AND_TIME ( #181, #40 ) ;
#35 = APPROVAL_DATE_TIME ( #34, #39 ) ;
#36 = CC_DESIGN_PERSON_AND_ORGANIZATION_ASSIGNMENT ( #27, #28, ( #188 ) ) ;
#37 = LOCAL_TIME ( 10, 54, 54.00000000000000000, #189 ) ;
#38 = CC_DESIGN_DATE_AND_TIME_ASSIGNMENT ( #29, #30, ( #188 ) ) ;
#39 = APPROVAL ( #32, 'UNSPECIFIED' ) ;
#40 = LOCAL_TIME ( 10, 54, 54.00000000000000000, #180 ) ;
#41 = PRODUCT_RELATED_PRODUCT_CATEGORY ( 'detail', '', ( #42 ) ) ;
#42 = PRODUCT ( 'sone3D', 'sone3D', '', ( #4 ) ) ;
#43 = APPLICATION_CONTEXT ( 'configuration controlled 3d designs of mechanical parts and assemblies' ) ;
#44 = APPLICATION_CONTEXT ( 'configuration controlled 3d designs of mechanical parts and assemblies' ) ;
#45 = CLOSED_SHELL ( 'NONE', ( #159, #160, #161, #164, #163, #162 ) ) ;
#46 = VECTOR ( 'NONE', #94, 1000.000000000000000 ) ;
#47 = VECTOR ( 'NONE', #73, 1000.000000000000000 ) ;
#48 = EDGE_CURVE ( 'NONE', #112, #108, #71, .T. ) ;
#49 = EDGE_CURVE ( 'NONE', #105, #113, #75, .T. ) ;
#50 = CC_DESIGN_PERSON_AND_ORGANIZATION_ASSIGNMENT ( #5, #6, ( #42 ) ) ;
#51 = APPROVAL ( #9, 'UNSPECIFIED' ) ;
#52 = LOCAL_TIME ( 10, 54, 54.00000000000000000, #173 ) ;
#53 = PRODUCT_DEFINITION ( 'UNKNOWN', '', #178, #194 ) ;
#54 = CC_DESIGN_PERSON_AND_ORGANIZATION_ASSIGNMENT ( #13, #14, ( #53 ) ) ;
#55 = LOCAL_TIME ( 10, 54, 54.00000000000000000, #176 ) ;
#56 = CC_DESIGN_DATE_AND_TIME_ASSIGNMENT ( #15, #16, ( #53 ) ) ;
#57 = APPROVAL ( #18, 'UNSPECIFIED' ) ;
#58 = LOCAL_TIME ( 10, 54, 54.00000000000000000, #185 ) ;
#59 = CC_DESIGN_PERSON_AND_ORGANIZATION_ASSIGNMENT ( #22, #23, ( #178 ) ) ;
#60 = ORIENTED_EDGE ( 'NONE', *, *, #158, .F. ) ;
#61 = ORIENTED_EDGE ( 'NONE', *, *, #48, .F. ) ;
#62 = ORIENTED_EDGE ( 'NONE', *, *, #155, .F. ) ;
#63 = ORIENTED_EDGE ( 'NONE', *, *, #170, .F. ) ;
#64 = ORIENTED_EDGE ( 'NONE', *, *, #165, .F. ) ;
#65 = ORIENTED_EDGE ( 'NONE', *, *, #157, .F. ) ;
#66 = ORIENTED_EDGE ( 'NONE', *, *, #166, .T. ) ;
#67 = ORIENTED_EDGE ( 'NONE', *, *, #48, .T. ) ;
#68 = ORIENTED_EDGE ( 'NONE', *, *, #49, .F. ) ;
#69 = ORIENTED_EDGE ( 'NONE', *, *, #167, .F. ) ;
#70 = ORIENTED_EDGE ( 'NONE', *, *, #157, .T. ) ;
#71 = LINE ( 'NONE', #72, #47 ) ;
#72 = CARTESIAN_POINT ( 'NONE',  ( -2.500000000000000400, -2.500000000000000400, -1000.000000000000000 ) ) ;
#73 = DIRECTION ( 'NONE',  ( 1.000000000000000000, 0.0000000000000000000, 0.0000000000000000000 ) ) ;
#74 = CARTESIAN_POINT ( 'NONE',  ( 2.500000000000000400, 2.500000000000000000, 1000.000000000000000 ) ) ;
#75 = LINE ( 'NONE', #76, #168 ) ;
#76 = CARTESIAN_POINT ( 'NONE',  ( -2.500000000000000400, -2.500000000000000400, 1000.000000000000000 ) ) ;
#77 = DIRECTION ( 'NONE',  ( 1.000000000000000000, 0.0000000000000000000, 0.0000000000000000000 ) ) ;
#78 = CARTESIAN_POINT ( 'NONE',  ( -2.500000000000000400, -2.500000000000000400, 1000.000000000000000 ) ) ;
#79 = CARTESIAN_POINT ( 'NONE',  ( 2.500000000000000400, -2.500000000000000400, -1000.000000000000000 ) ) ;
#80 = CARTESIAN_POINT ( 'NONE',  ( -2.500000000000000400, 2.500000000000000400, -1000.000000000000000 ) ) ;
#81 = CARTESIAN_POINT ( 'NONE',  ( -2.500000000000000400, -2.500000000000000400, -1000.000000000000000 ) ) ;
#82 = CARTESIAN_POINT ( 'NONE',  ( 2.500000000000000400, -2.500000000000000400, 1000.000000000000000 ) ) ;
#83 = CARTESIAN_POINT ( 'NONE',  ( 2.500000000000000400, 2.500000000000000000, -1000.000000000000000 ) ) ;
#84 = CARTESIAN_POINT ( 'NONE',  ( -2.500000000000000400, 2.500000000000000400, 1000.000000000000000 ) ) ;
#85 = LINE ( 'NONE', #86, #148 ) ;
#86 = CARTESIAN_POINT ( 'NONE',  ( 2.500000000000000400, 2.500000000000000000, 1000.000000000000000 ) ) ;
#87 = DIRECTION ( 'NONE',  ( -0.0000000000000000000, 1.000000000000000000, -0.0000000000000000000 ) ) ;
#88 = PLANE ( 'NONE',  #135 ) ;
#89 = LINE ( 'NONE', #90, #153 ) ;
#90 = CARTESIAN_POINT ( 'NONE',  ( -2.500000000000000400, 2.500000000000000400, -1000.000000000000000 ) ) ;
#91 = DIRECTION ( 'NONE',  ( -1.000000000000000000, 8.673617379884034200E-017, -0.0000000000000000000 ) ) ;
#92 = LINE ( 'NONE', #93, #46 ) ;
#93 = CARTESIAN_POINT ( 'NONE',  ( -2.500000000000000400, 2.500000000000000400, 1000.000000000000000 ) ) ;
#94 = DIRECTION ( 'NONE',  ( -1.000000000000000000, 8.673617379884034200E-017, -0.0000000000000000000 ) ) ;
#95 = LINE ( 'NONE', #96, #145 ) ;
#96 = CARTESIAN_POINT ( 'NONE',  ( -2.500000000000000400, -2.500000000000000400, 1000.000000000000000 ) ) ;
#97 = DIRECTION ( 'NONE',  ( -0.0000000000000000000, -0.0000000000000000000, -1.000000000000000000 ) ) ;
#98 = LINE ( 'NONE', #99, #133 ) ;
#99 = CARTESIAN_POINT ( 'NONE',  ( -2.500000000000000400, 2.500000000000000400, -1000.000000000000000 ) ) ;
#100 = ORIENTED_EDGE ( 'NONE', *, *, #154, .T. ) ;
#101 = ORIENTED_EDGE ( 'NONE', *, *, #235, .T. ) ;
#102 = ORIENTED_EDGE ( 'NONE', *, *, #156, .T. ) ;
#103 = ORIENTED_EDGE ( 'NONE', *, *, #158, .T. ) ;
#104 = VERTEX_POINT ( 'NONE', #74 ) ;
#105 = VERTEX_POINT ( 'NONE', #78 ) ;
#106 = ORIENTED_EDGE ( 'NONE', *, *, #49, .T. ) ;
#107 = ORIENTED_EDGE ( 'NONE', *, *, #165, .T. ) ;
#108 = VERTEX_POINT ( 'NONE', #79 ) ;
#109 = EDGE_LOOP ( 'NONE', ( #67, #69, #68, #70 ) ) ;
#110 = EDGE_LOOP ( 'NONE', ( #126, #124, #125, #123 ) ) ;
#111 = VERTEX_POINT ( 'NONE', #80 ) ;
#112 = VERTEX_POINT ( 'NONE', #81 ) ;
#113 = VERTEX_POINT ( 'NONE', #82 ) ;
#114 = VERTEX_POINT ( 'NONE', #83 ) ;
#115 = VERTEX_POINT ( 'NONE', #84 ) ;
#116 = EDGE_LOOP ( 'NONE', ( #103, #65, #64, #66 ) ) ;
#117 = EDGE_LOOP ( 'NONE', ( #121, #120, #122, #101 ) ) ;
#118 = EDGE_LOOP ( 'NONE', ( #107, #106, #100, #102 ) ) ;
#119 = EDGE_LOOP ( 'NONE', ( #60, #62, #63, #61 ) ) ;
#120 = ORIENTED_EDGE ( 'NONE', *, *, #166, .F. ) ;
#121 = ORIENTED_EDGE ( 'NONE', *, *, #155, .T. ) ;
#122 = ORIENTED_EDGE ( 'NONE', *, *, #156, .F. ) ;
#123 = ORIENTED_EDGE ( 'NONE', *, *, #167, .T. ) ;
#124 = ORIENTED_EDGE ( 'NONE', *, *, #235, .F. ) ;
#125 = ORIENTED_EDGE ( 'NONE', *, *, #154, .F. ) ;
#126 = ORIENTED_EDGE ( 'NONE', *, *, #170, .T. ) ;
#127 = VECTOR ( 'NONE', #205, 1000.000000000000000 ) ;
#128 = VECTOR ( 'NONE', #202, 1000.000000000000000 ) ;
#129 = VECTOR ( 'NONE', #199, 1000.000000000000000 ) ;
#130 = VECTOR ( 'NONE', #196, 1000.000000000000000 ) ;
#131 = AXIS2_PLACEMENT_3D ( 'NONE', #237, #191, #1 ) ;
#132 = ORGANIZATION ( 'UNSPECIFIED', 'UNSPECIFIED', '' ) ;
#133 = VECTOR ( 'NONE', #234, 1000.000000000000000 ) ;
#134 = AXIS2_PLACEMENT_3D ( 'NONE', #229, #228, #227 ) ;
#135 = AXIS2_PLACEMENT_3D ( 'NONE', #233, #232, #231 ) ;
#136 = FACE_OUTER_BOUND ( 'NONE', #110, .T. ) ;
#137 = FACE_OUTER_BOUND ( 'NONE', #109, .T. ) ;
#138 = FACE_OUTER_BOUND ( 'NONE', #119, .T. ) ;
#139 = AXIS2_PLACEMENT_3D ( 'NONE', #225, #224, #223 ) ;
#140 = FACE_OUTER_BOUND ( 'NONE', #118, .T. ) ;
#141 = AXIS2_PLACEMENT_3D ( 'NONE', #221, #220, #219 ) ;
#142 = FACE_OUTER_BOUND ( 'NONE', #117, .T. ) ;
#143 = AXIS2_PLACEMENT_3D ( 'NONE', #217, #216, #215 ) ;
#144 = AXIS2_PLACEMENT_3D ( 'NONE', #213, #212, #211 ) ;
#145 = VECTOR ( 'NONE', #97, 1000.000000000000000 ) ;
#146 =( NAMED_UNIT ( * ) SI_UNIT ( $, .STERADIAN. ) SOLID_ANGLE_UNIT ( ) );
#147 =( NAMED_UNIT ( * ) PLANE_ANGLE_UNIT ( ) SI_UNIT ( $, .RADIAN. ) );
#148 = VECTOR ( 'NONE', #87, 1000.000000000000000 ) ;
#149 = ADVANCED_BREP_SHAPE_REPRESENTATION ( 'sone3D', ( #193, #131 ), #171 ) ;
#150 = UNCERTAINTY_MEASURE_WITH_UNIT (LENGTH_MEASURE( 1.000000000000000100E-005 ), #195, 'distance_accuracy_value', 'NONE');
#151 = PERSON ( 'UNSPECIFIED', 'UNSPECIFIED', 'UNSPECIFIED', ('UNSPECIFIED'), ('UNSPECIFIED'), ('UNSPECIFIED') ) ;
#152 = VECTOR ( 'NONE', #208, 1000.000000000000000 ) ;
#153 = VECTOR ( 'NONE', #91, 1000.000000000000000 ) ;
#154 = EDGE_CURVE ( 'NONE', #113, #104, #85, .T. ) ;
#155 = EDGE_CURVE ( 'NONE', #114, #111, #89, .T. ) ;
#156 = EDGE_CURVE ( 'NONE', #104, #115, #92, .T. ) ;
#157 = EDGE_CURVE ( 'NONE', #105, #112, #95, .T. ) ;
#158 = EDGE_CURVE ( 'NONE', #111, #112, #98, .T. ) ;
#159 = ADVANCED_FACE ( 'NONE', ( #169 ), #88, .F. ) ;
#160 = ADVANCED_FACE ( 'NONE', ( #137 ), #230, .F. ) ;
#161 = ADVANCED_FACE ( 'NONE', ( #136 ), #226, .F. ) ;
#162 = ADVANCED_FACE ( 'NONE', ( #138 ), #222, .F. ) ;
#163 = ADVANCED_FACE ( 'NONE', ( #140 ), #218, .T. ) ;
#164 = ADVANCED_FACE ( 'NONE', ( #142 ), #214, .F. ) ;
#165 = EDGE_CURVE ( 'NONE', #115, #105, #210, .T. ) ;
#166 = EDGE_CURVE ( 'NONE', #115, #111, #207, .T. ) ;
#167 = EDGE_CURVE ( 'NONE', #113, #108, #204, .T. ) ;
#168 = VECTOR ( 'NONE', #77, 1000.000000000000000 ) ;
#169 = FACE_OUTER_BOUND ( 'NONE', #116, .T. ) ;
#170 = EDGE_CURVE ( 'NONE', #108, #114, #201, .T. ) ;
#171 =( GEOMETRIC_REPRESENTATION_CONTEXT ( 3 ) GLOBAL_UNCERTAINTY_ASSIGNED_CONTEXT ( ( #150 ) ) GLOBAL_UNIT_ASSIGNED_CONTEXT ( ( #195, #147, #146 ) ) REPRESENTATION_CONTEXT ( 'NONE', 'WORKASPACE' ) );
#172 = APPROVAL_PERSON_ORGANIZATION ( #8, #51, #10 ) ;
#173 = COORDINATED_UNIVERSAL_TIME_OFFSET ( 9, 0, .AHEAD. ) ;
#174 = CALENDAR_DATE ( 2013, 13, 5 ) ;
#175 = CC_DESIGN_APPROVAL ( #51, ( #53 ) ) ;
#176 = COORDINATED_UNIVERSAL_TIME_OFFSET ( 9, 0, .AHEAD. ) ;
#177 = CALENDAR_DATE ( 2013, 13, 5 ) ;
#178 = PRODUCT_DEFINITION_FORMATION_WITH_SPECIFIED_SOURCE ( 'ANY', '', #42, .NOT_KNOWN. ) ;
#179 = APPROVAL_PERSON_ORGANIZATION ( #31, #39, #33 ) ;
#180 = COORDINATED_UNIVERSAL_TIME_OFFSET ( 9, 0, .AHEAD. ) ;
#181 = CALENDAR_DATE ( 2013, 13, 5 ) ;
#182 = CC_DESIGN_APPROVAL ( #39, ( #188 ) ) ;
#183 = CC_DESIGN_SECURITY_CLASSIFICATION ( #188, ( #178 ) ) ;
#184 = APPROVAL_PERSON_ORGANIZATION ( #17, #57, #19 ) ;
#185 = COORDINATED_UNIVERSAL_TIME_OFFSET ( 9, 0, .AHEAD. ) ;
#186 = CALENDAR_DATE ( 2013, 13, 5 ) ;
#187 = CC_DESIGN_APPROVAL ( #57, ( #178 ) ) ;
#188 = SECURITY_CLASSIFICATION ( '', '', #26 ) ;
#189 = COORDINATED_UNIVERSAL_TIME_OFFSET ( 9, 0, .AHEAD. ) ;
#190 = CALENDAR_DATE ( 2013, 13, 5 ) ;
#191 = DIRECTION ( 'NONE',  ( 0.0000000000000000000, 0.0000000000000000000, 1.000000000000000000 ) ) ;
#192 = PRODUCT_DEFINITION_SHAPE ( 'NONE', 'NONE',  #53 ) ;
#193 = MANIFOLD_SOLID_BREP ( 'ÎÞ½ - µoµ1', #45 ) ;
#194 = DESIGN_CONTEXT ( 'detailed design', #43, 'design' ) ;
#195 =( LENGTH_UNIT ( ) NAMED_UNIT ( * ) SI_UNIT ( .MILLI., .METRE. ) );
#196 = DIRECTION ( 'NONE',  ( -0.0000000000000000000, -0.0000000000000000000, -1.000000000000000000 ) ) ;
#197 = CARTESIAN_POINT ( 'NONE',  ( 2.500000000000000400, 2.500000000000000000, 1000.000000000000000 ) ) ;
#198 = LINE ( 'NONE', #197, #130 ) ;
#199 = DIRECTION ( 'NONE',  ( -0.0000000000000000000, 1.000000000000000000, -0.0000000000000000000 ) ) ;
#200 = CARTESIAN_POINT ( 'NONE',  ( 2.500000000000000400, 2.500000000000000000, -1000.000000000000000 ) ) ;
#201 = LINE ( 'NONE', #200, #129 ) ;
#202 = DIRECTION ( 'NONE',  ( -0.0000000000000000000, -0.0000000000000000000, -1.000000000000000000 ) ) ;
#203 = CARTESIAN_POINT ( 'NONE',  ( 2.500000000000000400, -2.500000000000000400, 1000.000000000000000 ) ) ;
#204 = LINE ( 'NONE', #203, #128 ) ;
#205 = DIRECTION ( 'NONE',  ( -0.0000000000000000000, -0.0000000000000000000, -1.000000000000000000 ) ) ;
#206 = CARTESIAN_POINT ( 'NONE',  ( -2.500000000000000400, 2.500000000000000400, 1000.000000000000000 ) ) ;
#207 = LINE ( 'NONE', #206, #127 ) ;
#208 = DIRECTION ( 'NONE',  ( 0.0000000000000000000, -1.000000000000000000, 0.0000000000000000000 ) ) ;
#209 = CARTESIAN_POINT ( 'NONE',  ( -2.500000000000000400, 2.500000000000000400, 1000.000000000000000 ) ) ;
#210 = LINE ( 'NONE', #209, #152 ) ;
#211 = DIRECTION ( 'NONE',  ( 1.000000000000000000, -8.673617379884034200E-017, 0.0000000000000000000 ) ) ;
#212 = DIRECTION ( 'NONE',  ( -8.673617379884034200E-017, -1.000000000000000000, 0.0000000000000000000 ) ) ;
#213 = CARTESIAN_POINT ( 'NONE',  ( -2.500000000000000400, 2.500000000000000400, 1000.000000000000000 ) ) ;
#214 = PLANE ( 'NONE',  #144 ) ;
#215 = DIRECTION ( 'NONE',  ( 1.000000000000000000, 0.0000000000000000000, 0.0000000000000000000 ) ) ;
#216 = DIRECTION ( 'NONE',  ( -0.0000000000000000000, 0.0000000000000000000, 1.000000000000000000 ) ) ;
#217 = CARTESIAN_POINT ( 'NONE',  ( 0.0000000000000000000, 0.0000000000000000000, 1000.000000000000000 ) ) ;
#218 = PLANE ( 'NONE',  #143 ) ;
#219 = DIRECTION ( 'NONE',  ( 1.000000000000000000, 0.0000000000000000000, 0.0000000000000000000 ) ) ;
#220 = DIRECTION ( 'NONE',  ( -0.0000000000000000000, 0.0000000000000000000, 1.000000000000000000 ) ) ;
#221 = CARTESIAN_POINT ( 'NONE',  ( 0.0000000000000000000, 0.0000000000000000000, -1000.000000000000000 ) ) ;
#222 = PLANE ( 'NONE',  #141 ) ;
#223 = DIRECTION ( 'NONE',  ( 0.0000000000000000000, 0.0000000000000000000, 1.000000000000000000 ) ) ;
#224 = DIRECTION ( 'NONE',  ( -1.000000000000000000, 0.0000000000000000000, 0.0000000000000000000 ) ) ;
#225 = CARTESIAN_POINT ( 'NONE',  ( 2.500000000000000400, 2.500000000000000000, 1000.000000000000000 ) ) ;
#226 = PLANE ( 'NONE',  #139 ) ;
#227 = DIRECTION ( 'NONE',  ( 0.0000000000000000000, -0.0000000000000000000, 1.000000000000000000 ) ) ;
#228 = DIRECTION ( 'NONE',  ( 0.0000000000000000000, 1.000000000000000000, 0.0000000000000000000 ) ) ;
#229 = CARTESIAN_POINT ( 'NONE',  ( -2.500000000000000400, -2.500000000000000400, 1000.000000000000000 ) ) ;
#230 = PLANE ( 'NONE',  #134 ) ;
#231 = DIRECTION ( 'NONE',  ( -0.0000000000000000000, 0.0000000000000000000, -1.000000000000000000 ) ) ;
#232 = DIRECTION ( 'NONE',  ( 1.000000000000000000, 0.0000000000000000000, -0.0000000000000000000 ) ) ;
#233 = CARTESIAN_POINT ( 'NONE',  ( -2.500000000000000400, 2.500000000000000400, 1000.000000000000000 ) ) ;
#234 = DIRECTION ( 'NONE',  ( 0.0000000000000000000, -1.000000000000000000, 0.0000000000000000000 ) ) ;
#235 = EDGE_CURVE ( 'NONE', #104, #114, #198, .T. ) ;
#236 = CC_DESIGN_PERSON_AND_ORGANIZATION_ASSIGNMENT ( #24, #25, ( #178 ) ) ;
#237 = CARTESIAN_POINT ( 'NONE',  ( 0.0000000000000000000, 0.0000000000000000000, 0.0000000000000000000 ) ) ;
ENDSEC;
END-ISO-10303-21;
