ISO-10303-21;
HEADER;
FILE_DESCRIPTION (( 'STEP AP203' ),
    '1' );
FILE_NAME ('sone3D.STEP',
    '2013-05-13T01:56:49',
    ( '' ),
    ( '' ),
    'SwSTEP 2.0',
    'SolidWorks 2012',
    '' );
FILE_SCHEMA (( 'CONFIG_CONTROL_DESIGN' ));
ENDSEC;

DATA;
#1 = CC_DESIGN_PERSON_AND_ORGANIZATION_ASSIGNMENT ( #45, #44, ( #14 ) ) ;
#2 = PRODUCT_DEFINITION ( 'UNKNOWN', '', #122, #104 ) ;
#3 = APPROVAL ( #41, 'UNSPECIFIED' ) ;
#4 = LOCAL_TIME ( 10, 56, 49.00000000000000000, #81 ) ;
#5 = CC_DESIGN_PERSON_AND_ORGANIZATION_ASSIGNMENT ( #37, #36, ( #2 ) ) ;
#6 = LOCAL_TIME ( 10, 56, 49.00000000000000000, #120 ) ;
#7 = CC_DESIGN_DATE_AND_TIME_ASSIGNMENT ( #35, #34, ( #2 ) ) ;
#8 = APPROVAL ( #32, 'UNSPECIFIED' ) ;
#9 = LOCAL_TIME ( 10, 56, 49.00000000000000000, #124 ) ;
#10 = CC_DESIGN_PERSON_AND_ORGANIZATION_ASSIGNMENT ( #28, #27, ( #122 ) ) ;
#11 = CC_DESIGN_PERSON_AND_ORGANIZATION_ASSIGNMENT ( #26, #25, ( #122 ) ) ;
#12 = CC_DESIGN_PERSON_AND_ORGANIZATION_ASSIGNMENT ( #23, #22, ( #127 ) ) ;
#13 = LOCAL_TIME ( 10, 56, 49.00000000000000000, #128 ) ;
#14 = PRODUCT ( 'sone3D', 'sone3D', '', ( #46 ) ) ;
#15 = APPROVAL_DATE_TIME ( #16, #135 ) ;
#16 = DATE_AND_TIME ( #132, #136 ) ;
#17 = APPROVAL_ROLE ( '' ) ;
#18 = APPROVAL_STATUS ( 'not_yet_approved' ) ;
#19 = PERSON_AND_ORGANIZATION ( #97, #116 ) ;
#20 = DATE_TIME_ROLE ( 'classification_date' ) ;
#21 = DATE_AND_TIME ( #129, #13 ) ;
#22 = PERSON_AND_ORGANIZATION_ROLE ( 'classification_officer' ) ;
#23 = PERSON_AND_ORGANIZATION ( #97, #116 ) ;
#24 = SECURITY_CLASSIFICATION_LEVEL ( 'unclassified' ) ;
#25 = PERSON_AND_ORGANIZATION_ROLE ( 'design_supplier' ) ;
#26 = PERSON_AND_ORGANIZATION ( #97, #116 ) ;
#27 = PERSON_AND_ORGANIZATION_ROLE ( 'creator' ) ;
#28 = PERSON_AND_ORGANIZATION ( #97, #116 ) ;
#29 = APPROVAL_DATE_TIME ( #30, #8 ) ;
#30 = DATE_AND_TIME ( #125, #9 ) ;
#31 = APPROVAL_ROLE ( '' ) ;
#32 = APPROVAL_STATUS ( 'not_yet_approved' ) ;
#33 = PERSON_AND_ORGANIZATION ( #97, #116 ) ;
#34 = DATE_TIME_ROLE ( 'creation_date' ) ;
#35 = DATE_AND_TIME ( #121, #6 ) ;
#36 = PERSON_AND_ORGANIZATION_ROLE ( 'creator' ) ;
#37 = PERSON_AND_ORGANIZATION ( #97, #116 ) ;
#38 = APPROVAL_DATE_TIME ( #39, #3 ) ;
#39 = DATE_AND_TIME ( #78, #4 ) ;
#40 = APPROVAL_ROLE ( '' ) ;
#41 = APPROVAL_STATUS ( 'not_yet_approved' ) ;
#42 = PERSON_AND_ORGANIZATION ( #97, #116 ) ;
#43 = APPLICATION_PROTOCOL_DEFINITION ( 'international standard', 'config_control_design', 1994, #72 ) ;
#44 = PERSON_AND_ORGANIZATION_ROLE ( 'design_owner' ) ;
#45 = PERSON_AND_ORGANIZATION ( #97, #116 ) ;
#46 = MECHANICAL_CONTEXT ( 'NONE', #73, 'mechanical' ) ;
#47 = SHAPE_DEFINITION_REPRESENTATION ( #105, #98 ) ;
#48 = DIRECTION ( 'NONE',  ( 1.000000000000000000, 0.0000000000000000000, 0.0000000000000000000 ) ) ;
#49 = DIRECTION ( 'NONE',  ( 0.0000000000000000000, 0.0000000000000000000, 1.000000000000000000 ) ) ;
#50 = CARTESIAN_POINT ( 'NONE',  ( 0.0000000000000000000, 0.0000000000000000000, 0.0000000000000000000 ) ) ;
#51 = APPLICATION_PROTOCOL_DEFINITION ( 'international standard', 'config_control_design', 1994, #73 ) ;
#52 =( NAMED_UNIT ( * ) SI_UNIT ( $, .STERADIAN. ) SOLID_ANGLE_UNIT ( ) );
#53 = VECTOR ( 'NONE', #176, 1000.000000000000000 ) ;
#54 = VECTOR ( 'NONE', #179, 1000.000000000000000 ) ;
#55 = ORIENTED_EDGE ( 'NONE', *, *, #88, .F. ) ;
#56 = ORIENTED_EDGE ( 'NONE', *, *, #77, .T. ) ;
#57 = ORIENTED_EDGE ( 'NONE', *, *, #77, .F. ) ;
#58 = ORIENTED_EDGE ( 'NONE', *, *, #111, .F. ) ;
#59 = ORIENTED_EDGE ( 'NONE', *, *, #106, .F. ) ;
#60 = ORIENTED_EDGE ( 'NONE', *, *, #86, .T. ) ;
#61 = ORIENTED_EDGE ( 'NONE', *, *, #89, .T. ) ;
#62 = EDGE_LOOP ( 'NONE', ( #158, #160, #159, #161 ) ) ;
#63 = VERTEX_POINT ( 'NONE', #167 ) ;
#64 = VERTEX_POINT ( 'NONE', #168 ) ;
#65 = EDGE_LOOP ( 'NONE', ( #154, #156, #155, #157 ) ) ;
#66 = EDGE_LOOP ( 'NONE', ( #152, #60, #61, #150 ) ) ;
#67 = EDGE_LOOP ( 'NONE', ( #57, #59, #55, #58 ) ) ;
#68 = VERTEX_POINT ( 'NONE', #169 ) ;
#69 = EDGE_LOOP ( 'NONE', ( #163, #149, #162, #151 ) ) ;
#70 = EDGE_LOOP ( 'NONE', ( #56, #164, #165, #166 ) ) ;
#71 = AXIS2_PLACEMENT_3D ( 'NONE', #197, #198, #199 ) ;
#72 = APPLICATION_CONTEXT ( 'configuration controlled 3d designs of mechanical parts and assemblies' ) ;
#73 = APPLICATION_CONTEXT ( 'configuration controlled 3d designs of mechanical parts and assemblies' ) ;
#74 = AXIS2_PLACEMENT_3D ( 'NONE', #189, #190, #191 ) ;
#75 = CLOSED_SHELL ( 'NONE', ( #94, #90, #92, #93, #91, #95 ) ) ;
#76 = FACE_OUTER_BOUND ( 'NONE', #65, .T. ) ;
#77 = EDGE_CURVE ( 'NONE', #153, #148, #170, .T. ) ;
#78 = CALENDAR_DATE ( 2013, 13, 5 ) ;
#79 = VECTOR ( 'NONE', #214, 1000.000000000000000 ) ;
#80 = VECTOR ( 'NONE', #218, 1000.000000000000000 ) ;
#81 = COORDINATED_UNIVERSAL_TIME_OFFSET ( 9, 0, .AHEAD. ) ;
#82 = VECTOR ( 'NONE', #185, 1000.000000000000000 ) ;
#83 = FACE_OUTER_BOUND ( 'NONE', #66, .T. ) ;
#84 = VECTOR ( 'NONE', #172, 1000.000000000000000 ) ;
#85 = EDGE_CURVE ( 'NONE', #63, #148, #174, .T. ) ;
#86 = EDGE_CURVE ( 'NONE', #63, #147, #177, .T. ) ;
#87 = EDGE_CURVE ( 'NONE', #68, #145, #180, .T. ) ;
#88 = EDGE_CURVE ( 'NONE', #146, #145, #183, .T. ) ;
#89 = EDGE_CURVE ( 'NONE', #147, #68, #186, .T. ) ;
#90 = ADVANCED_FACE ( 'NONE', ( #76 ), #173, .F. ) ;
#91 = ADVANCED_FACE ( 'NONE', ( #83 ), #192, .T. ) ;
#92 = ADVANCED_FACE ( 'NONE', ( #100 ), #196, .F. ) ;
#93 = ADVANCED_FACE ( 'NONE', ( #141 ), #200, .F. ) ;
#94 = ADVANCED_FACE ( 'NONE', ( #140 ), #204, .F. ) ;
#95 = ADVANCED_FACE ( 'NONE', ( #142 ), #208, .F. ) ;
#96 = UNCERTAINTY_MEASURE_WITH_UNIT (LENGTH_MEASURE( 1.000000000000000100E-005 ), #235, 'distance_accuracy_value', 'NONE');
#97 = PERSON ( 'UNSPECIFIED', 'UNSPECIFIED', 'UNSPECIFIED', ('UNSPECIFIED'), ('UNSPECIFIED'), ('UNSPECIFIED') ) ;
#98 = ADVANCED_BREP_SHAPE_REPRESENTATION ( 'sone3D', ( #103, #115 ), #118 ) ;
#99 = VECTOR ( 'NONE', #188, 1000.000000000000000 ) ;
#100 = FACE_OUTER_BOUND ( 'NONE', #62, .T. ) ;
#101 = AXIS2_PLACEMENT_3D ( 'NONE', #193, #194, #195 ) ;
#102 = VECTOR ( 'NONE', #182, 1000.000000000000000 ) ;
#103 = MANIFOLD_SOLID_BREP ( 'ÎÞ½ - µoµ1', #75 ) ;
#104 = DESIGN_CONTEXT ( 'detailed design', #72, 'design' ) ;
#105 = PRODUCT_DEFINITION_SHAPE ( 'NONE', 'NONE',  #2 ) ;
#106 = EDGE_CURVE ( 'NONE', #145, #153, #212, .T. ) ;
#107 = EDGE_CURVE ( 'NONE', #68, #64, #216, .T. ) ;
#108 = EDGE_CURVE ( 'NONE', #64, #63, #219, .T. ) ;
#109 = EDGE_CURVE ( 'NONE', #64, #153, #222, .T. ) ;
#110 = EDGE_CURVE ( 'NONE', #147, #146, #225, .T. ) ;
#111 = EDGE_CURVE ( 'NONE', #148, #146, #228, .T. ) ;
#112 = VECTOR ( 'NONE', #224, 1000.000000000000000 ) ;
#113 = VECTOR ( 'NONE', #227, 1000.000000000000000 ) ;
#114 = VECTOR ( 'NONE', #230, 1000.000000000000000 ) ;
#115 = AXIS2_PLACEMENT_3D ( 'NONE', #50, #49, #48 ) ;
#116 = ORGANIZATION ( 'UNSPECIFIED', 'UNSPECIFIED', '' ) ;
#117 = APPROVAL_PERSON_ORGANIZATION ( #42, #3, #40 ) ;
#118 =( GEOMETRIC_REPRESENTATION_CONTEXT ( 3 ) GLOBAL_UNCERTAINTY_ASSIGNED_CONTEXT ( ( #96 ) ) GLOBAL_UNIT_ASSIGNED_CONTEXT ( ( #235, #236, #52 ) ) REPRESENTATION_CONTEXT ( 'NONE', 'WORKASPACE' ) );
#119 = CC_DESIGN_APPROVAL ( #3, ( #2 ) ) ;
#120 = COORDINATED_UNIVERSAL_TIME_OFFSET ( 9, 0, .AHEAD. ) ;
#121 = CALENDAR_DATE ( 2013, 13, 5 ) ;
#122 = PRODUCT_DEFINITION_FORMATION_WITH_SPECIFIED_SOURCE ( 'ANY', '', #14, .NOT_KNOWN. ) ;
#123 = APPROVAL_PERSON_ORGANIZATION ( #33, #8, #31 ) ;
#124 = COORDINATED_UNIVERSAL_TIME_OFFSET ( 9, 0, .AHEAD. ) ;
#125 = CALENDAR_DATE ( 2013, 13, 5 ) ;
#126 = CC_DESIGN_APPROVAL ( #8, ( #122 ) ) ;
#127 = SECURITY_CLASSIFICATION ( '', '', #24 ) ;
#128 = COORDINATED_UNIVERSAL_TIME_OFFSET ( 9, 0, .AHEAD. ) ;
#129 = CALENDAR_DATE ( 2013, 13, 5 ) ;
#130 = APPROVAL_PERSON_ORGANIZATION ( #19, #135, #17 ) ;
#131 = COORDINATED_UNIVERSAL_TIME_OFFSET ( 9, 0, .AHEAD. ) ;
#132 = CALENDAR_DATE ( 2013, 13, 5 ) ;
#133 = CC_DESIGN_APPROVAL ( #135, ( #127 ) ) ;
#134 = CC_DESIGN_DATE_AND_TIME_ASSIGNMENT ( #21, #20, ( #127 ) ) ;
#135 = APPROVAL ( #18, 'UNSPECIFIED' ) ;
#136 = LOCAL_TIME ( 10, 56, 49.00000000000000000, #131 ) ;
#137 = PRODUCT_RELATED_PRODUCT_CATEGORY ( 'detail', '', ( #14 ) ) ;
#138 = CC_DESIGN_SECURITY_CLASSIFICATION ( #127, ( #122 ) ) ;
#139 = AXIS2_PLACEMENT_3D ( 'NONE', #201, #202, #203 ) ;
#140 = FACE_OUTER_BOUND ( 'NONE', #70, .T. ) ;
#141 = FACE_OUTER_BOUND ( 'NONE', #69, .T. ) ;
#142 = FACE_OUTER_BOUND ( 'NONE', #67, .T. ) ;
#143 = AXIS2_PLACEMENT_3D ( 'NONE', #205, #206, #207 ) ;
#144 = AXIS2_PLACEMENT_3D ( 'NONE', #209, #210, #211 ) ;
#145 = VERTEX_POINT ( 'NONE', #231 ) ;
#146 = VERTEX_POINT ( 'NONE', #232 ) ;
#147 = VERTEX_POINT ( 'NONE', #233 ) ;
#148 = VERTEX_POINT ( 'NONE', #234 ) ;
#149 = ORIENTED_EDGE ( 'NONE', *, *, #109, .F. ) ;
#150 = ORIENTED_EDGE ( 'NONE', *, *, #107, .T. ) ;
#151 = ORIENTED_EDGE ( 'NONE', *, *, #87, .T. ) ;
#152 = ORIENTED_EDGE ( 'NONE', *, *, #108, .T. ) ;
#153 = VERTEX_POINT ( 'NONE', #215 ) ;
#154 = ORIENTED_EDGE ( 'NONE', *, *, #111, .T. ) ;
#155 = ORIENTED_EDGE ( 'NONE', *, *, #86, .F. ) ;
#156 = ORIENTED_EDGE ( 'NONE', *, *, #110, .F. ) ;
#157 = ORIENTED_EDGE ( 'NONE', *, *, #85, .T. ) ;
#158 = ORIENTED_EDGE ( 'NONE', *, *, #88, .T. ) ;
#159 = ORIENTED_EDGE ( 'NONE', *, *, #89, .F. ) ;
#160 = ORIENTED_EDGE ( 'NONE', *, *, #87, .F. ) ;
#161 = ORIENTED_EDGE ( 'NONE', *, *, #110, .T. ) ;
#162 = ORIENTED_EDGE ( 'NONE', *, *, #107, .F. ) ;
#163 = ORIENTED_EDGE ( 'NONE', *, *, #106, .T. ) ;
#164 = ORIENTED_EDGE ( 'NONE', *, *, #85, .F. ) ;
#165 = ORIENTED_EDGE ( 'NONE', *, *, #108, .F. ) ;
#166 = ORIENTED_EDGE ( 'NONE', *, *, #109, .T. ) ;
#167 = CARTESIAN_POINT ( 'NONE',  ( -10.00000000000000000, -2.500000000000001300, 1000.000000000000000 ) ) ;
#168 = CARTESIAN_POINT ( 'NONE',  ( -10.00000000000000000, 2.500000000000001300, 1000.000000000000000 ) ) ;
#169 = CARTESIAN_POINT ( 'NONE',  ( 10.00000000000000000, 2.500000000000000000, 1000.000000000000000 ) ) ;
#170 = LINE ( 'NONE', #171, #84 ) ;
#171 = CARTESIAN_POINT ( 'NONE',  ( -10.00000000000000000, 2.500000000000001300, -1000.000000000000000 ) ) ;
#172 = DIRECTION ( 'NONE',  ( 0.0000000000000000000, -1.000000000000000000, 0.0000000000000000000 ) ) ;
#173 = PLANE ( 'NONE',  #74 ) ;
#174 = LINE ( 'NONE', #175, #53 ) ;
#175 = CARTESIAN_POINT ( 'NONE',  ( -10.00000000000000000, -2.500000000000001300, 1000.000000000000000 ) ) ;
#176 = DIRECTION ( 'NONE',  ( -0.0000000000000000000, -0.0000000000000000000, -1.000000000000000000 ) ) ;
#177 = LINE ( 'NONE', #178, #54 ) ;
#178 = CARTESIAN_POINT ( 'NONE',  ( -10.00000000000000000, -2.500000000000001300, 1000.000000000000000 ) ) ;
#179 = DIRECTION ( 'NONE',  ( 1.000000000000000000, 6.505213034913026600E-017, 0.0000000000000000000 ) ) ;
#180 = LINE ( 'NONE', #181, #102 ) ;
#181 = CARTESIAN_POINT ( 'NONE',  ( 10.00000000000000000, 2.500000000000000000, 1000.000000000000000 ) ) ;
#182 = DIRECTION ( 'NONE',  ( -0.0000000000000000000, -0.0000000000000000000, -1.000000000000000000 ) ) ;
#183 = LINE ( 'NONE', #184, #82 ) ;
#184 = CARTESIAN_POINT ( 'NONE',  ( 10.00000000000000000, 2.500000000000000000, -1000.000000000000000 ) ) ;
#185 = DIRECTION ( 'NONE',  ( -0.0000000000000000000, 1.000000000000000000, -0.0000000000000000000 ) ) ;
#186 = LINE ( 'NONE', #187, #99 ) ;
#187 = CARTESIAN_POINT ( 'NONE',  ( 10.00000000000000000, 2.500000000000000000, 1000.000000000000000 ) ) ;
#188 = DIRECTION ( 'NONE',  ( -0.0000000000000000000, 1.000000000000000000, -0.0000000000000000000 ) ) ;
#189 = CARTESIAN_POINT ( 'NONE',  ( -10.00000000000000000, -2.500000000000001300, 1000.000000000000000 ) ) ;
#190 = DIRECTION ( 'NONE',  ( -6.505213034913026600E-017, 1.000000000000000000, 0.0000000000000000000 ) ) ;
#191 = DIRECTION ( 'NONE',  ( -1.000000000000000000, -6.505213034913026600E-017, 0.0000000000000000000 ) ) ;
#192 = PLANE ( 'NONE',  #101 ) ;
#193 = CARTESIAN_POINT ( 'NONE',  ( 0.0000000000000000000, 0.0000000000000000000, 1000.000000000000000 ) ) ;
#194 = DIRECTION ( 'NONE',  ( -0.0000000000000000000, 0.0000000000000000000, 1.000000000000000000 ) ) ;
#195 = DIRECTION ( 'NONE',  ( 1.000000000000000000, 0.0000000000000000000, 0.0000000000000000000 ) ) ;
#196 = PLANE ( 'NONE',  #71 ) ;
#197 = CARTESIAN_POINT ( 'NONE',  ( 10.00000000000000000, 2.500000000000000000, 1000.000000000000000 ) ) ;
#198 = DIRECTION ( 'NONE',  ( -1.000000000000000000, 0.0000000000000000000, 0.0000000000000000000 ) ) ;
#199 = DIRECTION ( 'NONE',  ( 0.0000000000000000000, 0.0000000000000000000, 1.000000000000000000 ) ) ;
#200 = PLANE ( 'NONE',  #139 ) ;
#201 = CARTESIAN_POINT ( 'NONE',  ( -10.00000000000000000, 2.500000000000001300, 1000.000000000000000 ) ) ;
#202 = DIRECTION ( 'NONE',  ( -6.505213034913026600E-017, -1.000000000000000000, 0.0000000000000000000 ) ) ;
#203 = DIRECTION ( 'NONE',  ( 1.000000000000000000, -6.505213034913026600E-017, 0.0000000000000000000 ) ) ;
#204 = PLANE ( 'NONE',  #143 ) ;
#205 = CARTESIAN_POINT ( 'NONE',  ( -10.00000000000000000, 2.500000000000001300, 1000.000000000000000 ) ) ;
#206 = DIRECTION ( 'NONE',  ( 1.000000000000000000, 0.0000000000000000000, -0.0000000000000000000 ) ) ;
#207 = DIRECTION ( 'NONE',  ( -0.0000000000000000000, 0.0000000000000000000, -1.000000000000000000 ) ) ;
#208 = PLANE ( 'NONE',  #144 ) ;
#209 = CARTESIAN_POINT ( 'NONE',  ( 0.0000000000000000000, 0.0000000000000000000, -1000.000000000000000 ) ) ;
#210 = DIRECTION ( 'NONE',  ( -0.0000000000000000000, 0.0000000000000000000, 1.000000000000000000 ) ) ;
#211 = DIRECTION ( 'NONE',  ( 1.000000000000000000, 0.0000000000000000000, 0.0000000000000000000 ) ) ;
#212 = LINE ( 'NONE', #213, #79 ) ;
#213 = CARTESIAN_POINT ( 'NONE',  ( -10.00000000000000000, 2.500000000000001300, -1000.000000000000000 ) ) ;
#214 = DIRECTION ( 'NONE',  ( -1.000000000000000000, 6.505213034913026600E-017, -0.0000000000000000000 ) ) ;
#215 = CARTESIAN_POINT ( 'NONE',  ( -10.00000000000000000, 2.500000000000001300, -1000.000000000000000 ) ) ;
#216 = LINE ( 'NONE', #217, #80 ) ;
#217 = CARTESIAN_POINT ( 'NONE',  ( -10.00000000000000000, 2.500000000000001300, 1000.000000000000000 ) ) ;
#218 = DIRECTION ( 'NONE',  ( -1.000000000000000000, 6.505213034913026600E-017, -0.0000000000000000000 ) ) ;
#219 = LINE ( 'NONE', #220, #237 ) ;
#220 = CARTESIAN_POINT ( 'NONE',  ( -10.00000000000000000, 2.500000000000001300, 1000.000000000000000 ) ) ;
#221 = DIRECTION ( 'NONE',  ( 0.0000000000000000000, -1.000000000000000000, 0.0000000000000000000 ) ) ;
#222 = LINE ( 'NONE', #223, #112 ) ;
#223 = CARTESIAN_POINT ( 'NONE',  ( -10.00000000000000000, 2.500000000000001300, 1000.000000000000000 ) ) ;
#224 = DIRECTION ( 'NONE',  ( -0.0000000000000000000, -0.0000000000000000000, -1.000000000000000000 ) ) ;
#225 = LINE ( 'NONE', #226, #113 ) ;
#226 = CARTESIAN_POINT ( 'NONE',  ( 10.00000000000000000, -2.500000000000000000, 1000.000000000000000 ) ) ;
#227 = DIRECTION ( 'NONE',  ( -0.0000000000000000000, -0.0000000000000000000, -1.000000000000000000 ) ) ;
#228 = LINE ( 'NONE', #229, #114 ) ;
#229 = CARTESIAN_POINT ( 'NONE',  ( -10.00000000000000000, -2.500000000000001300, -1000.000000000000000 ) ) ;
#230 = DIRECTION ( 'NONE',  ( 1.000000000000000000, 6.505213034913026600E-017, 0.0000000000000000000 ) ) ;
#231 = CARTESIAN_POINT ( 'NONE',  ( 10.00000000000000000, 2.500000000000000000, -1000.000000000000000 ) ) ;
#232 = CARTESIAN_POINT ( 'NONE',  ( 10.00000000000000000, -2.500000000000000000, -1000.000000000000000 ) ) ;
#233 = CARTESIAN_POINT ( 'NONE',  ( 10.00000000000000000, -2.500000000000000000, 1000.000000000000000 ) ) ;
#234 = CARTESIAN_POINT ( 'NONE',  ( -10.00000000000000000, -2.500000000000001300, -1000.000000000000000 ) ) ;
#235 =( LENGTH_UNIT ( ) NAMED_UNIT ( * ) SI_UNIT ( .MILLI., .METRE. ) );
#236 =( NAMED_UNIT ( * ) PLANE_ANGLE_UNIT ( ) SI_UNIT ( $, .RADIAN. ) );
#237 = VECTOR ( 'NONE', #221, 1000.000000000000000 ) ;
ENDSEC;
END-ISO-10303-21;
