ISO-10303-21;
HEADER;
FILE_DESCRIPTION (( 'STEP AP203' ),
    '1' );
FILE_NAME ('sone3D.STEP',
    '2013-05-13T01:56:13',
    ( '' ),
    ( '' ),
    'SwSTEP 2.0',
    'SolidWorks 2012',
    '' );
FILE_SCHEMA (( 'CONFIG_CONTROL_DESIGN' ));
ENDSEC;

DATA;
#1 = VECTOR ( 'NONE', #101, 1000.000000000000000 ) ;
#2 = AXIS2_PLACEMENT_3D ( 'NONE', #211, #207, #37 ) ;
#3 = VECTOR ( 'NONE', #104, 1000.000000000000000 ) ;
#4 = AXIS2_PLACEMENT_3D ( 'NONE', #105, #106, #107 ) ;
#5 = FACE_OUTER_BOUND ( 'NONE', #65, .T. ) ;
#6 =( LENGTH_UNIT ( ) NAMED_UNIT ( * ) SI_UNIT ( .MILLI., .METRE. ) );
#7 = APPROVAL ( #187, 'UNSPECIFIED' ) ;
#8 = LOCAL_TIME ( 10, 56, 13.00000000000000000, #17 ) ;
#9 = CC_DESIGN_PERSON_AND_ORGANIZATION_ASSIGNMENT ( #191, #192, ( #149 ) ) ;
#10 = CC_DESIGN_PERSON_AND_ORGANIZATION_ASSIGNMENT ( #193, #194, ( #149 ) ) ;
#11 = CC_DESIGN_PERSON_AND_ORGANIZATION_ASSIGNMENT ( #196, #197, ( #20 ) ) ;
#12 = LOCAL_TIME ( 10, 56, 13.00000000000000000, #21 ) ;
#13 = CC_DESIGN_DATE_AND_TIME_ASSIGNMENT ( #198, #199, ( #20 ) ) ;
#14 = APPROVAL ( #201, 'UNSPECIFIED' ) ;
#15 = LOCAL_TIME ( 10, 56, 13.00000000000000000, #24 ) ;
#16 = PRODUCT_RELATED_PRODUCT_CATEGORY ( 'detail', '', ( #31 ) ) ;
#17 = COORDINATED_UNIVERSAL_TIME_OFFSET ( 9, 0, .AHEAD. ) ;
#18 = CALENDAR_DATE ( 2013, 13, 5 ) ;
#19 = CC_DESIGN_APPROVAL ( #7, ( #149 ) ) ;
#20 = SECURITY_CLASSIFICATION ( '', '', #195 ) ;
#21 = COORDINATED_UNIVERSAL_TIME_OFFSET ( 9, 0, .AHEAD. ) ;
#22 = CALENDAR_DATE ( 2013, 13, 5 ) ;
#23 = APPROVAL_PERSON_ORGANIZATION ( #200, #14, #202 ) ;
#24 = COORDINATED_UNIVERSAL_TIME_OFFSET ( 9, 0, .AHEAD. ) ;
#25 = CALENDAR_DATE ( 2013, 13, 5 ) ;
#26 = CC_DESIGN_APPROVAL ( #14, ( #20 ) ) ;
#27 = CC_DESIGN_SECURITY_CLASSIFICATION ( #20, ( #149 ) ) ;
#28 = ADVANCED_FACE ( 'NONE', ( #121 ), #71, .T. ) ;
#29 = ADVANCED_FACE ( 'NONE', ( #116 ), #75, .F. ) ;
#30 =( GEOMETRIC_REPRESENTATION_CONTEXT ( 3 ) GLOBAL_UNCERTAINTY_ASSIGNED_CONTEXT ( ( #32 ) ) GLOBAL_UNIT_ASSIGNED_CONTEXT ( ( #6, #236, #167 ) ) REPRESENTATION_CONTEXT ( 'NONE', 'WORKASPACE' ) );
#31 = PRODUCT ( 'sone3D', 'sone3D', '', ( #173 ) ) ;
#32 = UNCERTAINTY_MEASURE_WITH_UNIT (LENGTH_MEASURE( 1.000000000000000100E-005 ), #6, 'distance_accuracy_value', 'NONE');
#33 = PERSON ( 'UNSPECIFIED', 'UNSPECIFIED', 'UNSPECIFIED', ('UNSPECIFIED'), ('UNSPECIFIED'), ('UNSPECIFIED') ) ;
#34 = ADVANCED_BREP_SHAPE_REPRESENTATION ( 'sone3D', ( #43, #231 ), #30 ) ;
#35 = VECTOR ( 'NONE', #98, 1000.000000000000000 ) ;
#36 = EDGE_CURVE ( 'NONE', #230, #223, #79, .T. ) ;
#37 = DIRECTION ( 'NONE',  ( 1.000000000000000000, 0.0000000000000000000, 0.0000000000000000000 ) ) ;
#38 = CARTESIAN_POINT ( 'NONE',  ( -7.500000000000000000, -2.500000000000001300, -1000.000000000000000 ) ) ;
#39 = APPLICATION_CONTEXT ( 'configuration controlled 3d designs of mechanical parts and assemblies' ) ;
#40 = APPLICATION_CONTEXT ( 'configuration controlled 3d designs of mechanical parts and assemblies' ) ;
#41 = PRODUCT_DEFINITION_SHAPE ( 'NONE', 'NONE',  #156 ) ;
#42 = DESIGN_CONTEXT ( 'detailed design', #40, 'design' ) ;
#43 = MANIFOLD_SOLID_BREP ( 'ÎÞ½ - µoµ1', #118 ) ;
#44 = ORIENTED_EDGE ( 'NONE', *, *, #142, .T. ) ;
#45 = ORIENTED_EDGE ( 'NONE', *, *, #138, .T. ) ;
#46 = ORIENTED_EDGE ( 'NONE', *, *, #163, .T. ) ;
#47 = ORIENTED_EDGE ( 'NONE', *, *, #141, .F. ) ;
#48 = ORIENTED_EDGE ( 'NONE', *, *, #36, .F. ) ;
#49 = ORIENTED_EDGE ( 'NONE', *, *, #164, .F. ) ;
#50 = ORIENTED_EDGE ( 'NONE', *, *, #162, .F. ) ;
#51 = ORIENTED_EDGE ( 'NONE', *, *, #36, .T. ) ;
#52 = ORIENTED_EDGE ( 'NONE', *, *, #138, .F. ) ;
#53 = ORIENTED_EDGE ( 'NONE', *, *, #165, .F. ) ;
#54 = ORIENTED_EDGE ( 'NONE', *, *, #139, .T. ) ;
#55 = ORIENTED_EDGE ( 'NONE', *, *, #141, .T. ) ;
#56 = ORIENTED_EDGE ( 'NONE', *, *, #165, .T. ) ;
#57 = ORIENTED_EDGE ( 'NONE', *, *, #162, .T. ) ;
#58 = ORIENTED_EDGE ( 'NONE', *, *, #163, .F. ) ;
#59 = ORIENTED_EDGE ( 'NONE', *, *, #143, .F. ) ;
#60 = ORIENTED_EDGE ( 'NONE', *, *, #140, .T. ) ;
#61 = ORIENTED_EDGE ( 'NONE', *, *, #234, .F. ) ;
#62 = ORIENTED_EDGE ( 'NONE', *, *, #164, .T. ) ;
#63 = ORIENTED_EDGE ( 'NONE', *, *, #140, .F. ) ;
#64 = ORIENTED_EDGE ( 'NONE', *, *, #142, .F. ) ;
#65 = EDGE_LOOP ( 'NONE', ( #48, #49, #50, #47 ) ) ;
#66 = EDGE_LOOP ( 'NONE', ( #45, #44, #46, #221 ) ) ;
#67 = EDGE_LOOP ( 'NONE', ( #62, #222, #61, #220 ) ) ;
#68 = EDGE_LOOP ( 'NONE', ( #55, #63, #64, #56 ) ) ;
#69 = EDGE_LOOP ( 'NONE', ( #51, #53, #52, #54 ) ) ;
#70 = EDGE_LOOP ( 'NONE', ( #57, #59, #58, #60 ) ) ;
#71 = PLANE ( 'NONE',  #120 ) ;
#72 = CARTESIAN_POINT ( 'NONE',  ( 0.0000000000000000000, 0.0000000000000000000, 1000.000000000000000 ) ) ;
#73 = DIRECTION ( 'NONE',  ( -0.0000000000000000000, 0.0000000000000000000, 1.000000000000000000 ) ) ;
#74 = DIRECTION ( 'NONE',  ( 1.000000000000000000, 0.0000000000000000000, 0.0000000000000000000 ) ) ;
#75 = PLANE ( 'NONE',  #117 ) ;
#76 = CARTESIAN_POINT ( 'NONE',  ( -7.500000000000000000, -2.500000000000001300, 1000.000000000000000 ) ) ;
#77 = DIRECTION ( 'NONE',  ( -8.673617379884035500E-017, 1.000000000000000000, 0.0000000000000000000 ) ) ;
#78 = DIRECTION ( 'NONE',  ( -1.000000000000000000, -8.673617379884035500E-017, 0.0000000000000000000 ) ) ;
#79 = LINE ( 'NONE', #80, #155 ) ;
#80 = CARTESIAN_POINT ( 'NONE',  ( -7.500000000000000000, 2.500000000000001300, -1000.000000000000000 ) ) ;
#81 = DIRECTION ( 'NONE',  ( 0.0000000000000000000, -1.000000000000000000, 0.0000000000000000000 ) ) ;
#82 = PLANE ( 'NONE',  #153 ) ;
#83 = CARTESIAN_POINT ( 'NONE',  ( -7.500000000000000000, 2.500000000000001300, 1000.000000000000000 ) ) ;
#84 = DIRECTION ( 'NONE',  ( 1.000000000000000000, 0.0000000000000000000, -0.0000000000000000000 ) ) ;
#85 = DIRECTION ( 'NONE',  ( -0.0000000000000000000, 0.0000000000000000000, -1.000000000000000000 ) ) ;
#86 = LINE ( 'NONE', #87, #114 ) ;
#87 = CARTESIAN_POINT ( 'NONE',  ( -7.500000000000000000, 2.500000000000001300, 1000.000000000000000 ) ) ;
#88 = DIRECTION ( 'NONE',  ( 0.0000000000000000000, -1.000000000000000000, 0.0000000000000000000 ) ) ;
#89 = PLANE ( 'NONE',  #4 ) ;
#90 = LINE ( 'NONE', #91, #113 ) ;
#91 = CARTESIAN_POINT ( 'NONE',  ( -7.500000000000000000, 2.500000000000001300, 1000.000000000000000 ) ) ;
#92 = DIRECTION ( 'NONE',  ( -0.0000000000000000000, -0.0000000000000000000, -1.000000000000000000 ) ) ;
#93 = LINE ( 'NONE', #94, #151 ) ;
#94 = CARTESIAN_POINT ( 'NONE',  ( 7.500000000000000000, -2.500000000000000000, 1000.000000000000000 ) ) ;
#95 = DIRECTION ( 'NONE',  ( -0.0000000000000000000, -0.0000000000000000000, -1.000000000000000000 ) ) ;
#96 = LINE ( 'NONE', #97, #35 ) ;
#97 = CARTESIAN_POINT ( 'NONE',  ( -7.500000000000000000, -2.500000000000001300, -1000.000000000000000 ) ) ;
#98 = DIRECTION ( 'NONE',  ( 1.000000000000000000, 8.673617379884035500E-017, 0.0000000000000000000 ) ) ;
#99 = LINE ( 'NONE', #100, #1 ) ;
#100 = CARTESIAN_POINT ( 'NONE',  ( -7.500000000000000000, -2.500000000000001300, 1000.000000000000000 ) ) ;
#101 = DIRECTION ( 'NONE',  ( 1.000000000000000000, 8.673617379884035500E-017, 0.0000000000000000000 ) ) ;
#102 = LINE ( 'NONE', #103, #3 ) ;
#103 = CARTESIAN_POINT ( 'NONE',  ( 7.500000000000000000, 2.500000000000000000, 1000.000000000000000 ) ) ;
#104 = DIRECTION ( 'NONE',  ( -0.0000000000000000000, -0.0000000000000000000, -1.000000000000000000 ) ) ;
#105 = CARTESIAN_POINT ( 'NONE',  ( -7.500000000000000000, 2.500000000000001300, 1000.000000000000000 ) ) ;
#106 = DIRECTION ( 'NONE',  ( -8.673617379884035500E-017, -1.000000000000000000, 0.0000000000000000000 ) ) ;
#107 = DIRECTION ( 'NONE',  ( 1.000000000000000000, -8.673617379884035500E-017, 0.0000000000000000000 ) ) ;
#108 = PLANE ( 'NONE',  #126 ) ;
#109 = CARTESIAN_POINT ( 'NONE',  ( -7.500000000000000000, 2.500000000000001300, -1000.000000000000000 ) ) ;
#110 = DIRECTION ( 'NONE',  ( 0.0000000000000000000, 0.0000000000000000000, 1.000000000000000000 ) ) ;
#111 = CARTESIAN_POINT ( 'NONE',  ( 7.500000000000000000, 2.500000000000000000, 1000.000000000000000 ) ) ;
#112 = DIRECTION ( 'NONE',  ( -1.000000000000000000, 0.0000000000000000000, 0.0000000000000000000 ) ) ;
#113 = VECTOR ( 'NONE', #92, 1000.000000000000000 ) ;
#114 = VECTOR ( 'NONE', #88, 1000.000000000000000 ) ;
#115 = CARTESIAN_POINT ( 'NONE',  ( 7.500000000000000000, 2.500000000000000000, -1000.000000000000000 ) ) ;
#116 = FACE_OUTER_BOUND ( 'NONE', #68, .T. ) ;
#117 = AXIS2_PLACEMENT_3D ( 'NONE', #76, #77, #78 ) ;
#118 = CLOSED_SHELL ( 'NONE', ( #137, #29, #233, #152, #28, #166 ) ) ;
#119 = APPROVAL_PERSON_ORGANIZATION ( #177, #157, #179 ) ;
#120 = AXIS2_PLACEMENT_3D ( 'NONE', #72, #73, #74 ) ;
#121 = FACE_OUTER_BOUND ( 'NONE', #66, .T. ) ;
#122 = CARTESIAN_POINT ( 'NONE',  ( 7.500000000000000000, 2.500000000000000000, 1000.000000000000000 ) ) ;
#123 = CARTESIAN_POINT ( 'NONE',  ( 7.500000000000000000, -2.500000000000000000, 1000.000000000000000 ) ) ;
#124 = CARTESIAN_POINT ( 'NONE',  ( -7.500000000000000000, 2.500000000000001300, 1000.000000000000000 ) ) ;
#125 = CC_DESIGN_PERSON_AND_ORGANIZATION_ASSIGNMENT ( #174, #175, ( #31 ) ) ;
#126 = AXIS2_PLACEMENT_3D ( 'NONE', #111, #112, #110 ) ;
#127 = VECTOR ( 'NONE', #130, 1000.000000000000000 ) ;
#128 = LINE ( 'NONE', #129, #127 ) ;
#129 = CARTESIAN_POINT ( 'NONE',  ( -7.500000000000000000, 2.500000000000001300, 1000.000000000000000 ) ) ;
#130 = DIRECTION ( 'NONE',  ( -1.000000000000000000, 8.673617379884035500E-017, -0.0000000000000000000 ) ) ;
#131 = VECTOR ( 'NONE', #206, 1000.000000000000000 ) ;
#132 = VECTOR ( 'NONE', #216, 1000.000000000000000 ) ;
#133 = VECTOR ( 'NONE', #217, 1000.000000000000000 ) ;
#134 = FACE_OUTER_BOUND ( 'NONE', #70, .T. ) ;
#135 = VECTOR ( 'NONE', #213, 1000.000000000000000 ) ;
#136 = CARTESIAN_POINT ( 'NONE',  ( -7.500000000000000000, -2.500000000000001300, 1000.000000000000000 ) ) ;
#137 = ADVANCED_FACE ( 'NONE', ( #154 ), #82, .F. ) ;
#138 = EDGE_CURVE ( 'NONE', #227, #229, #86, .T. ) ;
#139 = EDGE_CURVE ( 'NONE', #227, #230, #90, .T. ) ;
#140 = EDGE_CURVE ( 'NONE', #226, #224, #93, .T. ) ;
#141 = EDGE_CURVE ( 'NONE', #223, #224, #96, .T. ) ;
#142 = EDGE_CURVE ( 'NONE', #229, #226, #99, .T. ) ;
#143 = EDGE_CURVE ( 'NONE', #225, #228, #102, .T. ) ;
#144 = COORDINATED_UNIVERSAL_TIME_OFFSET ( 9, 0, .AHEAD. ) ;
#145 = CALENDAR_DATE ( 2013, 13, 5 ) ;
#146 = CC_DESIGN_APPROVAL ( #157, ( #156 ) ) ;
#147 = COORDINATED_UNIVERSAL_TIME_OFFSET ( 9, 0, .AHEAD. ) ;
#148 = CALENDAR_DATE ( 2013, 13, 5 ) ;
#149 = PRODUCT_DEFINITION_FORMATION_WITH_SPECIFIED_SOURCE ( 'ANY', '', #31, .NOT_KNOWN. ) ;
#150 = APPROVAL_PERSON_ORGANIZATION ( #186, #7, #188 ) ;
#151 = VECTOR ( 'NONE', #95, 1000.000000000000000 ) ;
#152 = ADVANCED_FACE ( 'NONE', ( #235 ), #89, .F. ) ;
#153 = AXIS2_PLACEMENT_3D ( 'NONE', #83, #84, #85 ) ;
#154 = FACE_OUTER_BOUND ( 'NONE', #69, .T. ) ;
#155 = VECTOR ( 'NONE', #81, 1000.000000000000000 ) ;
#156 = PRODUCT_DEFINITION ( 'UNKNOWN', '', #149, #42 ) ;
#157 = APPROVAL ( #178, 'UNSPECIFIED' ) ;
#158 = LOCAL_TIME ( 10, 56, 13.00000000000000000, #144 ) ;
#159 = CC_DESIGN_PERSON_AND_ORGANIZATION_ASSIGNMENT ( #182, #183, ( #156 ) ) ;
#160 = LOCAL_TIME ( 10, 56, 13.00000000000000000, #147 ) ;
#161 = CC_DESIGN_DATE_AND_TIME_ASSIGNMENT ( #184, #185, ( #156 ) ) ;
#162 = EDGE_CURVE ( 'NONE', #224, #228, #205, .T. ) ;
#163 = EDGE_CURVE ( 'NONE', #226, #225, #209, .T. ) ;
#164 = EDGE_CURVE ( 'NONE', #228, #230, #219, .T. ) ;
#165 = EDGE_CURVE ( 'NONE', #229, #223, #215, .T. ) ;
#166 = ADVANCED_FACE ( 'NONE', ( #5 ), #208, .F. ) ;
#167 =( NAMED_UNIT ( * ) SI_UNIT ( $, .STERADIAN. ) SOLID_ANGLE_UNIT ( ) );
#168 = APPLICATION_PROTOCOL_DEFINITION ( 'international standard', 'config_control_design', 1994, #39 ) ;
#169 = CARTESIAN_POINT ( 'NONE',  ( 0.0000000000000000000, 0.0000000000000000000, 0.0000000000000000000 ) ) ;
#170 = DIRECTION ( 'NONE',  ( 0.0000000000000000000, 0.0000000000000000000, 1.000000000000000000 ) ) ;
#171 = DIRECTION ( 'NONE',  ( 1.000000000000000000, 0.0000000000000000000, 0.0000000000000000000 ) ) ;
#172 = SHAPE_DEFINITION_REPRESENTATION ( #41, #34 ) ;
#173 = MECHANICAL_CONTEXT ( 'NONE', #39, 'mechanical' ) ;
#174 = PERSON_AND_ORGANIZATION ( #33, #232 ) ;
#175 = PERSON_AND_ORGANIZATION_ROLE ( 'design_owner' ) ;
#176 = APPLICATION_PROTOCOL_DEFINITION ( 'international standard', 'config_control_design', 1994, #40 ) ;
#177 = PERSON_AND_ORGANIZATION ( #33, #232 ) ;
#178 = APPROVAL_STATUS ( 'not_yet_approved' ) ;
#179 = APPROVAL_ROLE ( '' ) ;
#180 = DATE_AND_TIME ( #145, #158 ) ;
#181 = APPROVAL_DATE_TIME ( #180, #157 ) ;
#182 = PERSON_AND_ORGANIZATION ( #33, #232 ) ;
#183 = PERSON_AND_ORGANIZATION_ROLE ( 'creator' ) ;
#184 = DATE_AND_TIME ( #148, #160 ) ;
#185 = DATE_TIME_ROLE ( 'creation_date' ) ;
#186 = PERSON_AND_ORGANIZATION ( #33, #232 ) ;
#187 = APPROVAL_STATUS ( 'not_yet_approved' ) ;
#188 = APPROVAL_ROLE ( '' ) ;
#189 = DATE_AND_TIME ( #18, #8 ) ;
#190 = APPROVAL_DATE_TIME ( #189, #7 ) ;
#191 = PERSON_AND_ORGANIZATION ( #33, #232 ) ;
#192 = PERSON_AND_ORGANIZATION_ROLE ( 'creator' ) ;
#193 = PERSON_AND_ORGANIZATION ( #33, #232 ) ;
#194 = PERSON_AND_ORGANIZATION_ROLE ( 'design_supplier' ) ;
#195 = SECURITY_CLASSIFICATION_LEVEL ( 'unclassified' ) ;
#196 = PERSON_AND_ORGANIZATION ( #33, #232 ) ;
#197 = PERSON_AND_ORGANIZATION_ROLE ( 'classification_officer' ) ;
#198 = DATE_AND_TIME ( #22, #12 ) ;
#199 = DATE_TIME_ROLE ( 'classification_date' ) ;
#200 = PERSON_AND_ORGANIZATION ( #33, #232 ) ;
#201 = APPROVAL_STATUS ( 'not_yet_approved' ) ;
#202 = APPROVAL_ROLE ( '' ) ;
#203 = DATE_AND_TIME ( #25, #15 ) ;
#204 = APPROVAL_DATE_TIME ( #203, #14 ) ;
#205 = LINE ( 'NONE', #210, #131 ) ;
#206 = DIRECTION ( 'NONE',  ( -0.0000000000000000000, 1.000000000000000000, -0.0000000000000000000 ) ) ;
#207 = DIRECTION ( 'NONE',  ( -0.0000000000000000000, 0.0000000000000000000, 1.000000000000000000 ) ) ;
#208 = PLANE ( 'NONE',  #2 ) ;
#209 = LINE ( 'NONE', #212, #132 ) ;
#210 = CARTESIAN_POINT ( 'NONE',  ( 7.500000000000000000, 2.500000000000000000, -1000.000000000000000 ) ) ;
#211 = CARTESIAN_POINT ( 'NONE',  ( 0.0000000000000000000, 0.0000000000000000000, -1000.000000000000000 ) ) ;
#212 = CARTESIAN_POINT ( 'NONE',  ( 7.500000000000000000, 2.500000000000000000, 1000.000000000000000 ) ) ;
#213 = DIRECTION ( 'NONE',  ( -0.0000000000000000000, -0.0000000000000000000, -1.000000000000000000 ) ) ;
#214 = CARTESIAN_POINT ( 'NONE',  ( -7.500000000000000000, -2.500000000000001300, 1000.000000000000000 ) ) ;
#215 = LINE ( 'NONE', #214, #135 ) ;
#216 = DIRECTION ( 'NONE',  ( -0.0000000000000000000, 1.000000000000000000, -0.0000000000000000000 ) ) ;
#217 = DIRECTION ( 'NONE',  ( -1.000000000000000000, 8.673617379884035500E-017, -0.0000000000000000000 ) ) ;
#218 = CARTESIAN_POINT ( 'NONE',  ( -7.500000000000000000, 2.500000000000001300, -1000.000000000000000 ) ) ;
#219 = LINE ( 'NONE', #218, #133 ) ;
#220 = ORIENTED_EDGE ( 'NONE', *, *, #143, .T. ) ;
#221 = ORIENTED_EDGE ( 'NONE', *, *, #234, .T. ) ;
#222 = ORIENTED_EDGE ( 'NONE', *, *, #139, .F. ) ;
#223 = VERTEX_POINT ( 'NONE', #38 ) ;
#224 = VERTEX_POINT ( 'NONE', #237 ) ;
#225 = VERTEX_POINT ( 'NONE', #122 ) ;
#226 = VERTEX_POINT ( 'NONE', #123 ) ;
#227 = VERTEX_POINT ( 'NONE', #124 ) ;
#228 = VERTEX_POINT ( 'NONE', #115 ) ;
#229 = VERTEX_POINT ( 'NONE', #136 ) ;
#230 = VERTEX_POINT ( 'NONE', #109 ) ;
#231 = AXIS2_PLACEMENT_3D ( 'NONE', #169, #170, #171 ) ;
#232 = ORGANIZATION ( 'UNSPECIFIED', 'UNSPECIFIED', '' ) ;
#233 = ADVANCED_FACE ( 'NONE', ( #134 ), #108, .F. ) ;
#234 = EDGE_CURVE ( 'NONE', #225, #227, #128, .T. ) ;
#235 = FACE_OUTER_BOUND ( 'NONE', #67, .T. ) ;
#236 =( NAMED_UNIT ( * ) PLANE_ANGLE_UNIT ( ) SI_UNIT ( $, .RADIAN. ) );
#237 = CARTESIAN_POINT ( 'NONE',  ( 7.500000000000000000, -2.500000000000000000, -1000.000000000000000 ) ) ;
ENDSEC;
END-ISO-10303-21;
